  0
SECTION
  2
HEADER
  9
$ACADVER
  1
AC1009
  9
$INSBASE
 10
0
 20
0
 30
0
  9
$EXTMIN
 10
0
 20
0
  9
$EXTMAX
 10
594
 20
420
  9
$LIMMIN
 10
0
 20
0
  9
$LIMMAX
 10
594
 20
420
  9
$LTSCALE
 40
1
  0
ENDSEC
  0
SECTION
  2
TABLES
  0
TABLE
  2
LTYPE
 70
     9
  0
LTYPE
  2
CONTINUOUS
 70
    64
  3
実線
 72
    65
 73
     0
 40
0.0
  0
LTYPE
  2
DASHED1
 70
    64
  3
--  --  --  --  --  --  --  --  
 72
    65
 73
     2
 40
2.5
 49
1.25
 49
-1.25
  0
LTYPE
  2
DASHED2
 70
    64
  3
----    ----    ----    ----    
 72
    65
 73
     2
 40
5.0
 49
2.5
 49
-2.5
  0
LTYPE
  2
DASHED3
 70
    64
  3
------  ------  ------  ------  
 72
    65
 73
     2
 40
5.0
 49
3.75
 49
-1.25
  0
LTYPE
  2
CENTER1
 70
    64
  3
----- - ----- - ----- - ----- - 
 72
    65
 73
     4
 40
10.0
 49
6.25
 49
-1.25
 49
1.25
 49
-1.25
  0
LTYPE
  2
CENTER2
 70
    64
  3
----------  --  ----------  --  
 72
    65
 73
     4
 40
20.0
 49
12.5
 49
-2.5
 49
2.5
 49
-2.5
  0
LTYPE
  2
PHANTOM1
 70
    64
  3
--- - - --- - - --- - - --- - - 
 72
    65
 73
     6
 40
10.0
 49
3.25
 49
-1.25
 49
1.25
 49
-1.25
 49
1.25
 49
-1.25
  0
LTYPE
  2
PHANTOM2
 70
    64
  3
--------  -  -  --------  -  -  
 72
    65
 73
     6
 40
20.0
 49
10.0
 49
-2.5
 49
1.25
 49
-2.5
 49
1.25
 49
-2.5
  0
LTYPE
  2
DOT
 70
    64
  3
-   -   -   -   -   -   -   -   
 72
    65
 73
     2
 40
2.5
 49
0.625
 49
-1.875
  0
LTYPE
  2
DUMMY
 70
    64
  3
ダミー
 72
    65
 73
     0
 40
0.0
  0
LTYPE
  2
RAND1
 70
    64
  3
ランダム線1
 72
    65
 73
     4
 40
10.0
 49
1.0
 49
-2.0
 49
3.0
 49
-4.0
  0
LTYPE
  2
RAND2
 70
    64
  3
ランダム線2
 72
    65
 73
     4
 40
14.0
 49
2.0
 49
-3.0
 49
4.0
 49
-5.0
  0
LTYPE
  2
RAND3
 70
    64
  3
ランダム線3
 72
    65
 73
     4
 40
18.0
 49
3.0
 49
-4.0
 49
5.0
 49
-6.0
  0
LTYPE
  2
RAND4
 70
    64
  3
ランダム線4
 72
    65
 73
     4
 40
22.0
 49
4.0
 49
-5.0
 49
6.0
 49
-7.0
  0
LTYPE
  2
RAND5
 70
    64
  3
ランダム線5
 72
    65
 73
     4
 40
26.0
 49
5.0
 49
-6.0
 49
7.0
 49
-8.0
  0
LTYPE
  2
LONG1
 70
    64
  3
----------  --  ----------  --  
 72
    65
 73
     4
 40
40.0
 49
32.5
 49
-2.5
 49
2.5
 49
-2.5
  0
LTYPE
  2
LONG2
 70
    64
  3
--------  -  -  --------  -  -  
 72
    65
 73
     6
 40
40.0
 49
30.0
 49
-2.5
 49
1.25
 49
-2.5
 49
1.25
 49
-2.5
  0
LTYPE
  2
LONG3
 70
    64
  3
+++++++++++++++..+++++++++++++++
 72
    65
 73
     2
 40
40.0
 49
37.5
 49
-2.5
  0
LTYPE
  2
LONG4
 70
    64
  3
+++++++++++++++..+++++++++++++++
 72
    65
 73
     2
 40
80.0
 49
75.0
 49
-5.0
  0
LTYPE
  2
LONG5
 70
    64
  3
----------  --  ----------  --  
 72
    65
 73
     4
 40
60.0
 49
37.5
 49
-7.5
 49
7.5
 49
-7.5
  0
LTYPE
  2
dashed
 70
   64
  3
-------   -------------   ------
 72
   65
 73
    2
 40
7.5
 49
6
 49
-1.5
  0
LTYPE
  2
dashed_spaced
 70
   64
  3
----        --------        ----
 72
   65
 73
    2
 40
12
 49
6
 49
-6
  0
LTYPE
  2
long_dashed_dotted
 70
   64
  3
------------- --- --------------
 72
   65
 73
    4
 40
15.25
 49
12
 49
-1.5
 49
0.25
 49
-1.5
  0
LTYPE
  2
long_dashed_double-dotted
 70
   64
  3
----------- --- --- ------------
 72
   65
 73
    6
 40
17
 49
12
 49
-1.5
 49
0.25
 49
-1.5
 49
0.25
 49
-1.5
  0
LTYPE
  2
long_dashed_triplicate-dotted
 70
   64
  3
--------- --- --- --- ----------
 72
   65
 73
    8
 40
18.75
 49
12
 49
-1.5
 49
0.25
 49
-1.5
 49
0.25
 49
-1.5
 49
0.25
 49
-1.5
  0
LTYPE
  2
dotted
 70
   64
  3
   -       -       -       -    
 72
   65
 73
    2
 40
1.75
 49
0.25
 49
-1.5
  0
LTYPE
  2
chain
 70
   64
  3
-------------- -- --------------
 72
   65
 73
    4
 40
18.5
 49
12
 49
-1.5
 49
3.5
 49
-1.5
  0
LTYPE
  2
chain_double_dash
 70
   64
  3
------------ -- -- -------------
 72
   65
 73
    6
 40
23.5
 49
12
 49
-1.5
 49
3.5
 49
-1.5
 49
3.5
 49
-1.5
  0
LTYPE
  2
dashed_dotted
 70
   64
  3
-----------     -     ----------
 72
   65
 73
    4
 40
9.25
 49
6
 49
-1.5
 49
0.25
 49
-1.5
  0
LTYPE
  2
double-dashed_dotted
 70
   64
  3
------   -----------   -   -----
 72
   65
 73
    6
 40
16.75
 49
6
 49
-1.5
 49
6
 49
-1.5
 49
0.25
 49
-1.5
  0
LTYPE
  2
dashed_double-dotted
 70
   64
  3
---------    -    -    ---------
 72
   65
 73
    6
 40
11
 49
6
 49
-1.5
 49
0.25
 49
-1.5
 49
0.25
 49
-1.5
  0
LTYPE
  2
double-dashed_double-dotted
 70
   64
  3
-----   ---------   -   -   ----
 72
   65
 73
    8
 40
18.5
 49
6
 49
-1.5
 49
6
 49
-1.5
 49
0.25
 49
-1.5
 49
0.25
 49
-1.5
  0
LTYPE
  2
dashed_triplicate-dotted
 70
   64
  3
-------    -    -    -    ------
 72
   65
 73
    8
 40
12.75
 49
6
 49
-1.5
 49
0.25
 49
-1.5
 49
0.25
 49
-1.5
 49
0.25
 49
-1.5
  0
LTYPE
  2
double-dashed_triplicate-dotted
 70
   64
  3
-----  ---------  -  -  -  -----
 72
   65
 73
   10
 40
20.25
 49
6
 49
-1.5
 49
6
 49
-1.5
 49
0.25
 49
-1.5
 49
0.25
 49
-1.5
 49
0.25
 49
-1.5
  0
LTYPE
  2
undefined
 70
   64
  3
--------------------------------
 72
   65
 73
    0
 40
0
  0
LTYPE
  2
_
 70
   64
  3
                                
 72
   65
 73
    0
 40
0
  0
LTYPE
  2
__18
 70
   64
  3
                                
 72
   65
 73
    0
 40
0
  0
LTYPE
  2
__19
 70
   64
  3
                                
 72
   65
 73
    0
 40
0
  0
LTYPE
  2
__20
 70
   64
  3
                                
 72
   65
 73
    0
 40
0
  0
LTYPE
  2
__21
 70
   64
  3
                                
 72
   65
 73
    0
 40
0
  0
LTYPE
  2
__22
 70
   64
  3
                                
 72
   65
 73
    0
 40
0
  0
LTYPE
  2
__23
 70
   64
  3
                                
 72
   65
 73
    0
 40
0
  0
LTYPE
  2
__24
 70
   64
  3
                                
 72
   65
 73
    0
 40
0
  0
LTYPE
  2
__25
 70
   64
  3
                                
 72
   65
 73
    0
 40
0
  0
LTYPE
  2
__26
 70
   64
  3
                                
 72
   65
 73
    0
 40
0
  0
LTYPE
  2
__27
 70
   64
  3
                                
 72
   65
 73
    0
 40
0
  0
LTYPE
  2
__28
 70
   64
  3
                                
 72
   65
 73
    0
 40
0
  0
LTYPE
  2
__29
 70
   64
  3
                                
 72
   65
 73
    0
 40
0
  0
LTYPE
  2
__30
 70
   64
  3
                                
 72
   65
 73
    0
 40
0
  0
LTYPE
  2
__31
 70
   64
  3
                                
 72
   65
 73
    0
 40
0
  0
LTYPE
  2
__32
 70
   64
  3
                                
 72
   65
 73
    0
 40
0
  0
ENDTAB
  0
TABLE
  2
STYLE
  5
3
100
AcDbSymbolTable
 70
     1
  0
STYLE
  5
10
100
AcDbSymbolTableRecord
100
AcDbTextStyleTableRecord
  2
STANDARD
 70
     0
 40
0.0
 41
1.0
 50
0.0
 71
     0
 42
0.2
  3
txt
  4
bigfont.shx
  0
STYLE
  5
26
100
AcDbSymbolTableRecord
100
AcDbTextStyleTableRecord
  2
TATEGAKI
 70
    68
 40
0.0
 41
1.0
 50
0.0
 71
     0
 42
1.0
  3
txt
  4
bigfont.shx
  0
ENDTAB
  0
TABLE
  2
LAYER
 70
   19
  0
LAYER
  2
_0-2_製品
 70
   64
 62
    7
  6
CONTINUOUS
  0
LAYER
  2
_0-5_鉄骨
 70
   64
 62
    7
  6
CONTINUOUS
  0
LAYER
  2
_0-6_寸法
 70
   64
 62
    7
  6
CONTINUOUS
  0
LAYER
  2
_0-7_文字
 70
   64
 62
    7
  6
CONTINUOUS
  0
LAYER
  2
_0-8_
 70
   64
 62
    7
  6
CONTINUOUS
  0
LAYER
  2
_0-e_
 70
   64
 62
    7
  6
CONTINUOUS
  0
LAYER
  2
_0-f_図形
 70
   64
 62
    7
  6
CONTINUOUS
  0
LAYER
  2
_1-6_寸法
 70
   64
 62
    7
  6
CONTINUOUS
  0
LAYER
  2
_2-6_寸法
 70
   64
 62
    7
  6
CONTINUOUS
  0
LAYER
  2
_9-2_製品
 70
   64
 62
    7
  6
CONTINUOUS
  0
LAYER
  2
_9-5_鉄骨
 70
   64
 62
    7
  6
CONTINUOUS
  0
LAYER
  2
_9-6_寸法
 70
   64
 62
    7
  6
CONTINUOUS
  0
LAYER
  2
_9-7_文字
 70
   64
 62
    7
  6
CONTINUOUS
  0
LAYER
  2
_9-8_
 70
   64
 62
    7
  6
CONTINUOUS
  0
LAYER
  2
_9-d_______
 70
   64
 62
    7
  6
CONTINUOUS
  0
LAYER
  2
_9-f_図形
 70
   64
 62
    7
  6
CONTINUOUS
  0
LAYER
  2
_f-7_文字
 70
   64
 62
    7
  6
CONTINUOUS
  0
LAYER
  2
_f-9__f-6_寸法
 70
   64
 62
    7
  6
CONTINUOUS
  0
LAYER
  2
ADD_LINE
 70
   64
 62
    7
  6
CONTINUOUS
  0
ENDTAB
  0
ENDSEC
  0
SECTION
  2
BLOCKS
  0
ENDSEC
  0
SECTION
  2
ENTITIES
  0
ARC
  8
_0-f_図形
  6
CONTINUOUS
 62
    7
 10
78.539568107628327
 20
195.13324689743342
 40
10.447587606105255
 50
335.99619158206002
 51
24.003194774737782
  0
ARC
  8
_0-f_図形
  6
CONTINUOUS
 62
    7
 10
78.539568107628327
 20
186.63314467936118
 40
10.447587606105255
 50
335.99680522526228
 51
24.003808417939975
  0
LINE
  8
_0-f_図形
  6
CONTINUOUS
 62
    7
 10
88.987155713608615
 20
182.6331957883923
 11
88.987155713608615
 21
199.13319578839776
  0
LINE
  8
_0-f_図形
  6
CONTINUOUS
 62
    7
 10
82.587155713607615
 20
182.38319578839594
 11
82.587155713607615
 21
199.38319578839412
  0
LINE
  8
_0-f_図形
  6
CONTINUOUS
 62
    7
 10
88.737155713608843
 20
182.38319578839594
 11
88.987155713608615
 21
182.6331957883923
  0
LINE
  8
_0-f_図形
  6
CONTINUOUS
 62
    7
 10
88.737155713608843
 20
182.38319578839594
 11
82.587155713607615
 21
182.38319578839594
  0
LINE
  8
_0-f_図形
  6
CONTINUOUS
 62
    7
 10
88.737155713608843
 20
199.38319578839412
 11
88.987155713608615
 21
199.13319578839776
  0
LINE
  8
_0-f_図形
  6
CONTINUOUS
 62
    7
 10
88.737155713608843
 20
199.38319578839412
 11
82.587155713607615
 21
199.38319578839412
  0
LINE
  8
_0-f_図形
  6
CONTINUOUS
 62
    7
 10
82.587155713607615
 20
190.88319578839503
 11
88.083631831108221
 21
190.88319578839503
  0
LINE
  8
_0-f_図形
  6
DASHED1
 62
    7
 10
74.58715571360807
 20
185.88319578839503
 11
82.587155713607615
 21
185.88319578839503
  0
LINE
  8
_0-f_図形
  6
DASHED1
 62
    7
 10
74.58715571360807
 20
195.88319578839958
 11
82.587155713607615
 21
195.88319578839958
  0
LINE
  8
_0-f_図形
  6
CONTINUOUS
 62
    7
 10
72.587155713609889
 20
200.88319578839503
 11
72.587155713609889
 21
180.88319578839958
  0
LINE
  8
_0-f_図形
  6
CONTINUOUS
 62
    7
 10
74.58715571360807
 20
180.88319578839958
 11
72.587155713606478
 21
180.88319578839958
  0
LINE
  8
_0-f_図形
  6
CONTINUOUS
 62
    7
 10
74.58715571360807
 20
200.88319578839503
 11
74.58715571360807
 21
180.88319578839958
  0
LINE
  8
_0-f_図形
  6
CONTINUOUS
 62
    7
 10
74.58715571360807
 20
200.88319578839503
 11
72.587155713606478
 21
200.88319578839503
  0
LINE
  8
_0-f_図形
  6
CONTINUOUS
 62
    7
 10
59.287155587978702
 20
186.88319578839867
 11
64.287155587977566
 21
186.88319578839867
  0
LINE
  8
_0-f_図形
  6
CONTINUOUS
 62
    7
 10
59.287155587978702
 20
186.88319578839867
 11
59.287155587978702
 21
194.88319578840049
  0
LINE
  8
_0-f_図形
  6
CONTINUOUS
 62
    7
 10
60.287155587977793
 20
185.88319578839503
 11
60.287155587977793
 21
195.88319578839958
  0
LINE
  8
_0-f_図形
  6
CONTINUOUS
 62
    7
 10
59.287155587978702
 20
194.88319578840049
 11
60.287155587977793
 21
195.88319578839958
  0
LINE
  8
_0-f_図形
  6
CONTINUOUS
 62
    7
 10
59.287155587978702
 20
186.88319578839867
 11
60.287155587977793
 21
185.88319578839503
  0
LINE
  8
_0-f_図形
  6
CONTINUOUS
 62
    7
 10
59.287155587978702
 20
194.88319578840049
 11
64.287155587977566
 21
194.88319578840049
  0
LINE
  8
_0-f_図形
  6
CONTINUOUS
 62
    7
 10
60.287155587977793
 20
185.88319578839503
 11
64.287155587977566
 21
185.88319578839503
  0
LINE
  8
_0-f_図形
  6
CONTINUOUS
 62
    7
 10
60.287155587977793
 20
195.88319578839958
 11
64.287155587977566
 21
195.88319578839958
  0
ARC
  8
_0-f_図形
  6
CONTINUOUS
 62
    7
 10
78.539568107628327
 20
315.13324689743342
 40
10.447587606105255
 50
335.99619158206002
 51
24.003194774737782
  0
ARC
  8
_0-f_図形
  6
CONTINUOUS
 62
    7
 10
78.539568107628327
 20
306.63314467936118
 40
10.447587606105255
 50
335.99680522526228
 51
24.003808417939975
  0
LINE
  8
_0-f_図形
  6
CONTINUOUS
 62
    7
 10
88.987155713608615
 20
302.6331957883923
 11
88.987155713608615
 21
319.13319578839776
  0
LINE
  8
_0-f_図形
  6
CONTINUOUS
 62
    7
 10
82.587155713607615
 20
302.38319578839594
 11
82.587155713607615
 21
319.38319578839412
  0
LINE
  8
_0-f_図形
  6
CONTINUOUS
 62
    7
 10
88.737155713608843
 20
302.38319578839594
 11
88.987155713608615
 21
302.6331957883923
  0
LINE
  8
_0-f_図形
  6
CONTINUOUS
 62
    7
 10
88.737155713608843
 20
302.38319578839594
 11
82.587155713607615
 21
302.38319578839594
  0
LINE
  8
_0-f_図形
  6
CONTINUOUS
 62
    7
 10
88.737155713608843
 20
319.38319578839412
 11
88.987155713608615
 21
319.13319578839776
  0
LINE
  8
_0-f_図形
  6
CONTINUOUS
 62
    7
 10
88.737155713608843
 20
319.38319578839412
 11
82.587155713607615
 21
319.38319578839412
  0
LINE
  8
_0-f_図形
  6
CONTINUOUS
 62
    7
 10
82.587155713607615
 20
310.88319578839503
 11
88.083631831108221
 21
310.88319578839503
  0
LINE
  8
_0-f_図形
  6
DASHED1
 62
    7
 10
74.58715571360807
 20
305.88319578839503
 11
82.587155713607615
 21
305.88319578839503
  0
LINE
  8
_0-f_図形
  6
DASHED1
 62
    7
 10
74.58715571360807
 20
315.88319578839958
 11
82.587155713607615
 21
315.88319578839958
  0
LINE
  8
_0-f_図形
  6
CONTINUOUS
 62
    7
 10
72.587155713609889
 20
320.88319578839503
 11
72.587155713609889
 21
300.88319578839958
  0
LINE
  8
_0-f_図形
  6
CONTINUOUS
 62
    7
 10
74.58715571360807
 20
300.88319578839958
 11
72.587155713606478
 21
300.88319578839958
  0
LINE
  8
_0-f_図形
  6
CONTINUOUS
 62
    7
 10
74.58715571360807
 20
320.88319578839503
 11
74.58715571360807
 21
300.88319578839958
  0
LINE
  8
_0-f_図形
  6
CONTINUOUS
 62
    7
 10
74.58715571360807
 20
320.88319578839503
 11
72.587155713606478
 21
320.88319578839503
  0
LINE
  8
_0-f_図形
  6
CONTINUOUS
 62
    7
 10
59.287155587978702
 20
306.88319578839867
 11
64.287155587977566
 21
306.88319578839867
  0
LINE
  8
_0-f_図形
  6
CONTINUOUS
 62
    7
 10
59.287155587978702
 20
306.88319578839867
 11
59.287155587978702
 21
314.88319578840049
  0
LINE
  8
_0-f_図形
  6
CONTINUOUS
 62
    7
 10
60.287155587977793
 20
305.88319578839503
 11
60.287155587977793
 21
315.88319578839958
  0
LINE
  8
_0-f_図形
  6
CONTINUOUS
 62
    7
 10
59.287155587978702
 20
314.88319578840049
 11
60.287155587977793
 21
315.88319578839958
  0
LINE
  8
_0-f_図形
  6
CONTINUOUS
 62
    7
 10
59.287155587978702
 20
306.88319578839867
 11
60.287155587977793
 21
305.88319578839503
  0
LINE
  8
_0-f_図形
  6
CONTINUOUS
 62
    7
 10
59.287155587978702
 20
314.88319578840049
 11
64.287155587977566
 21
314.88319578840049
  0
LINE
  8
_0-f_図形
  6
CONTINUOUS
 62
    7
 10
60.287155587977793
 20
305.88319578839503
 11
64.287155587977566
 21
305.88319578839503
  0
LINE
  8
_0-f_図形
  6
CONTINUOUS
 62
    7
 10
60.287155587977793
 20
315.88319578839958
 11
64.287155587977566
 21
315.88319578839958
  0
LINE
  8
_0-f_図形
  6
CONTINUOUS
 62
    7
 10
72.587155587975815
 20
319.38319593934688
 11
72.587155587975815
 21
302.38319593934682
  0
LINE
  8
_0-f_図形
  6
CONTINUOUS
 62
    7
 10
65.787155587975747
 20
302.63319593934682
 11
65.787155587975747
 21
319.13319593934682
  0
LINE
  8
_0-f_図形
  6
CONTINUOUS
 62
    7
 10
64.287155587975747
 20
318.38319593934688
 11
64.287155587975747
 21
303.38319593934682
  0
LINE
  8
_0-f_図形
  6
CONTINUOUS
 62
    7
 10
66.682048587975771
 20
301.08319593934681
 11
71.836600087975796
 21
301.08319593934681
  0
LINE
  8
_0-f_図形
  6
CONTINUOUS
 62
    7
 10
66.682048587975771
 20
305.98319593934684
 11
71.836600087975796
 21
305.98319593934684
  0
LINE
  8
_0-f_図形
  6
CONTINUOUS
 62
    7
 10
65.787155587975747
 20
302.63319593934682
 11
66.682048587975771
 21
301.08319593934681
  0
LINE
  8
_0-f_図形
  6
CONTINUOUS
 62
    7
 10
65.037155587975747
 20
302.63319593934682
 11
65.787155587975747
 21
302.63319593934682
  0
LINE
  8
_0-f_図形
  6
CONTINUOUS
 62
    7
 10
72.587155587975815
 20
302.38319593934682
 11
71.836600087975796
 21
301.08319593934681
  0
LINE
  8
_0-f_図形
  6
CONTINUOUS
 62
    7
 10
65.787155587975747
 20
319.13319593934682
 11
66.682048587975771
 21
320.68319593934689
  0
LINE
  8
_0-f_図形
  6
CONTINUOUS
 62
    7
 10
72.587155587975815
 20
319.38319593934688
 11
71.836600087975796
 21
320.68319593934689
  0
LINE
  8
_0-f_図形
  6
CONTINUOUS
 62
    7
 10
66.682048587975771
 20
315.78319593934691
 11
71.836600087975796
 21
315.78319593934691
  0
LINE
  8
_0-f_図形
  6
CONTINUOUS
 62
    7
 10
65.037155587975747
 20
319.13319593934682
 11
65.787155587975747
 21
319.13319593934682
  0
LINE
  8
_0-f_図形
  6
CONTINUOUS
 62
    7
 10
66.682048587975771
 20
320.68319593934689
 11
71.836600087975796
 21
320.68319593934689
  0
ARC
  8
_0-f_図形
  6
CONTINUOUS
 62
    7
 10
75.761917587975802
 20
310.17318093934682
 40
10
 50
175.92848900000004
 51
204.77137599999995
  0
ARC
  8
_0-f_図形
  6
CONTINUOUS
 62
    7
 10
62.635603087975767
 20
309.90003743934682
 40
10
 50
336.94066600000002
 51
5.6421969999999266
  0
ARC
  8
_0-f_図形
  6
CONTINUOUS
 62
    7
 10
65.037155587975747
 20
303.38319593934682
 40
0.75
 50
180
 51
270
  0
ARC
  8
_0-f_図形
  6
CONTINUOUS
 62
    7
 10
70.765519087975861
 20
303.09784193934695
 40
5
 50
144.75522000000001
 51
185.332145
  0
ARC
  8
_0-f_図形
  6
CONTINUOUS
 62
    7
 10
67.660110087975738
 20
303.2342089393469
 40
5
 50
350.20040299999999
 51
33.353117000000388
  0
ARC
  8
_0-f_図形
  6
CONTINUOUS
 62
    7
 10
75.761917587975802
 20
311.59321093934682
 40
10
 50
155.228624
 51
184.07151099999999
  0
ARC
  8
_0-f_図形
  6
CONTINUOUS
 62
    7
 10
70.765519087975861
 20
318.66854993934686
 40
5
 50
174.667855
 51
215.24477999999999
  0
ARC
  8
_0-f_図形
  6
CONTINUOUS
 62
    7
 10
65.037155587975747
 20
318.38319593934688
 40
0.75
 50
90
 51
180
  0
ARC
  8
_0-f_図形
  6
CONTINUOUS
 62
    7
 10
62.635603087975767
 20
311.86635443934682
 40
10
 50
354.35780300000005
 51
23.059333999999964
  0
ARC
  8
_0-f_図形
  6
CONTINUOUS
 62
    7
 10
67.660110087975738
 20
318.53218293934685
 40
5
 50
326.64688299999892
 51
9.7995970000000749
  0
POINT
  8
_0-6_寸法
 62
    7
 10
41.099077426228803
 20
190.88319578839503
  0
POINT
  8
_0-6_寸法
 62
    7
 10
41.099077426228803
 20
310.88319578839503
  0
LINE
  8
_0-6_寸法
  6
CONTINUOUS
 62
    7
 10
41.099077426228803
 20
190.88319578839503
 11
41.099077426228803
 21
310.88319578839503
  0
TEXT
  8
_0-6_寸法
 62
    7
 10
40.699077426228826
 20
247.28319578839503
 40
6
 41
0.7999999999999999
 50
90
  1
120
  0
POINT
  8
_0-6_寸法
 62
    7
 10
41.099077426228803
 20
70.883195788395028
  0
LINE
  8
_0-6_寸法
  6
CONTINUOUS
 62
    7
 10
41.099077426228803
 20
190.88319578839503
 11
41.099077426228803
 21
70.883195788395028
  0
TEXT
  8
_0-6_寸法
 62
    7
 10
40.699077426228826
 20
127.28319578839503
 40
6
 41
0.7999999999999999
 50
90
  1
120
  0
LINE
  8
_0-6_寸法
  6
CONTINUOUS
 62
    7
 10
41.099077426228803
 20
347.4427242072062
 11
41.099077426228803
 21
310.88319578839503
  0
LINE
  8
_0-6_寸法
  6
CONTINUOUS
 62
    7
 10
41.099077426228803
 20
347.4427242072062
 11
37.678875992972166
 21
338.04579799934709
  0
LINE
  8
_0-8_
  6
CENTER1
 62
    7
 10
94.083634069029301
 20
190.88319578839503
 11
41.099077426228803
 21
190.88319578839503
  0
LINE
  8
_0-8_
  6
CENTER1
 62
    7
 10
94.083634069029301
 20
70.883195788395
 11
41.099077426228803
 21
70.883195788395028
  0
LINE
  8
_0-8_
  6
CENTER1
 62
    7
 10
94.083634069029301
 20
310.88319578839503
 11
41.099077426228803
 21
310.88319578839503
  0
LINE
  8
_0-7_文字
  6
CONTINUOUS
 62
    7
 10
83.001939524166119
 20
249.58369382991714
 11
99.80193952416613
 21
249.58369382991714
  0
LINE
  8
_0-7_文字
  6
CONTINUOUS
 62
    7
 10
83.001939524166119
 20
249.58369382991714
 11
75.909755588479527
 21
242.49150989423052
  0
TEXT
  8
_0-7_文字
 62
    7
 10
83.001939524166119
 20
250.08369382991714
 40
6
 41
0.7999999999999999
 50
0
  1
ｽﾄﾘﾝｶﾞｰ
  0
LINE
  8
_0-7_文字
  6
CONTINUOUS
 62
    7
 10
50.093494443066817
 20
208.85949304205676
 11
66.893494443066828
 21
208.85949304205676
  0
TEXT
  8
_0-7_文字
 62
    7
 10
50.093494443066817
 20
215.85949304205676
 40
6
 41
0.7999999999999999
 50
0
  1
SUS
  0
TEXT
  8
_0-7_文字
 62
    7
 10
50.093494443066817
 20
209.35949304205676
 40
6
 41
0.7999999999999999
 50
0
  1
M10ﾎﾞﾙﾄ
  0
LINE
  8
_0-7_文字
  6
CONTINUOUS
 62
    7
 10
66.893494443066828
 20
208.85949304205676
 11
72.896607349827462
 21
198.46179648397487
  0
TEXT
  8
_0-7_文字
 62
    7
 10
44.990461911909847
 20
174.03463817884881
 40
6
 41
0.7999999999999999
 50
0
  1
SUS
  0
TEXT
  8
_0-7_文字
 62
    7
 10
44.990461911909847
 20
167.53463817884881
 40
6
 41
0.7999999999999999
 50
0
  1
ﾕﾙﾐ止ﾅｯﾄ
  0
LINE
  8
_0-7_文字
  6
CONTINUOUS
 62
    7
 10
44.990461911909847
 20
167.03463817884881
 11
64.190461911909836
 21
167.03463817884881
  0
LINE
  8
_0-7_文字
  6
CONTINUOUS
 62
    7
 10
64.190461911909836
 20
167.03463817884881
 11
68.303899451626393
 21
182.38619607083214
  0
TEXT
  8
_0-7_文字
 62
    7
 10
56.092537803689481
 20
159.35429260630747
 40
6
 41
0.7999999999999999
 50
0
  1
SUS
  0
TEXT
  8
_0-7_文字
 62
    7
 10
56.092537803689481
 20
152.85429260630747
 40
6
 41
0.7999999999999999
 50
0
  1
座金
  0
LINE
  8
_0-7_文字
  6
CONTINUOUS
 62
    7
 10
73.336834372276741
 20
180.88319578839958
 11
65.692537803689476
 21
152.35429260630747
  0
LINE
  8
_0-7_文字
  6
CONTINUOUS
 62
    7
 10
56.092537803689481
 20
152.35429260630747
 11
65.692537803689476
 21
152.35429260630747
  0
TEXT
  8
_0-7_文字
 62
    7
 10
206.23865935755811
 20
252.49916282874017
 40
6
 41
0.7999999999999999
 50
0
  1
AL
  0
TEXT
  8
_0-7_文字
 62
    7
 10
206.23865935755811
 20
245.99916282874017
 40
6
 41
0.7999999999999999
 50
0
  1
遮音ﾙｰﾊﾞｰ
  0
LINE
  8
_0-7_文字
  6
CONTINUOUS
 62
    7
 10
206.23865935755811
 20
245.49916282874017
 11
227.8386593575581
 21
245.49916282874017
  0
LINE
  8
_0-7_文字
  6
CONTINUOUS
 62
    7
 10
206.23865935755811
 20
245.49916282874017
 11
189.83538955710299
 21
236.02873059385735
  0
POINT
  8
_0-6_寸法
 62
    7
 10
78.587155713607842
 20
122.21924695302069
  0
POINT
  8
_0-6_寸法
 62
    7
 10
194.92118818487853
 20
122.21924695302069
  0
LINE
  8
_0-6_寸法
  6
CONTINUOUS
 62
    7
 10
194.92118818487853
 20
122.21924695302069
 11
194.92118818487853
 21
201.22387796396143
  0
POINT
  8
_0-6_寸法
 62
    7
 10
194.92118818487853
 20
122.21924695302069
  0
POINT
  8
_0-6_寸法
 62
    7
 10
78.587155713607842
 20
122.21924695302069
  0
LINE
  8
_f-9__f-6_寸法
  6
CONTINUOUS
 62
    7
 10
194.92118818487853
 20
122.21924695302069
 11
78.587155713607842
 21
122.21924695302069
  0
TEXT
  8
_0-6_寸法
 62
    7
 10
130.75417194924319
 20
122.61924695302069
 40
6
 41
0.7999999999999999
 50
0
  1
116.3
  0
POINT
  8
_0-6_寸法
 62
    7
 10
125.919169141612
 20
141.34638407768773
  0
POINT
  8
_0-6_寸法
 62
    7
 10
104.70595598868221
 20
162.55959723061747
  0
LINE
  8
_f-9__f-6_寸法
  6
CONTINUOUS
 62
    7
 10
125.919169141612
 20
141.34638407768773
 11
104.70595598868221
 21
162.55959723061747
  0
TEXT
  8
_0-6_寸法
 62
    7
 10
113.89834900277401
 20
153.93288964147493
 40
6
 41
0.7999999999999999
 50
-45.000000000000057
  1
30
  0
POINT
  8
_0-6_寸法
 62
    7
 10
243.25482361634471
 20
387.07599895277326
  0
ARC
  8
_0-2_製品
  6
CONTINUOUS
 62
    7
 10
9.0918287215185387
 20
318.86526919607218
 40
177.00386778216054
 50
306.87477870172927
 51
323.12522129827062
  0
ARC
  8
_0-f_図形
  6
CONTINUOUS
 62
    7
 10
78.539568107628327
 20
75.133246897433423
 40
10.447587606105255
 50
335.99619158206002
 51
24.003194774737782
  0
ARC
  8
_0-f_図形
  6
CONTINUOUS
 62
    7
 10
78.539568107628327
 20
66.63314467936118
 40
10.447587606105255
 50
335.99680522526228
 51
24.003808417939975
  0
LINE
  8
_0-f_図形
  6
CONTINUOUS
 62
    7
 10
88.987155713608615
 20
62.6331957883923
 11
88.987155713608615
 21
79.133195788397757
  0
LINE
  8
_0-f_図形
  6
CONTINUOUS
 62
    7
 10
82.587155713607615
 20
62.383195788395938
 11
82.587155713607615
 21
79.383195788394119
  0
LINE
  8
_0-f_図形
  6
CONTINUOUS
 62
    7
 10
88.737155713608843
 20
62.383195788395938
 11
88.987155713608615
 21
62.6331957883923
  0
LINE
  8
_0-f_図形
  6
CONTINUOUS
 62
    7
 10
88.737155713608843
 20
62.383195788395938
 11
82.587155713607615
 21
62.383195788395938
  0
LINE
  8
_0-f_図形
  6
CONTINUOUS
 62
    7
 10
88.737155713608843
 20
79.383195788394119
 11
88.987155713608615
 21
79.133195788397757
  0
LINE
  8
_0-f_図形
  6
CONTINUOUS
 62
    7
 10
88.737155713608843
 20
79.383195788394119
 11
82.587155713607615
 21
79.383195788394119
  0
LINE
  8
_0-f_図形
  6
CONTINUOUS
 62
    7
 10
82.587155713607615
 20
70.883195788395028
 11
88.083631831108221
 21
70.883195788395028
  0
LINE
  8
_0-f_図形
  6
DASHED1
 62
    7
 10
74.58715571360807
 20
65.883195788395028
 11
82.587155713607615
 21
65.883195788395028
  0
LINE
  8
_0-f_図形
  6
DASHED1
 62
    7
 10
74.58715571360807
 20
75.883195788399576
 11
82.587155713607615
 21
75.883195788399576
  0
LINE
  8
_0-f_図形
  6
CONTINUOUS
 62
    7
 10
72.587155713609889
 20
80.883195788395028
 11
72.587155713609889
 21
60.883195788399576
  0
LINE
  8
_0-f_図形
  6
CONTINUOUS
 62
    7
 10
74.58715571360807
 20
60.883195788399576
 11
72.587155713606478
 21
60.883195788399576
  0
LINE
  8
_0-f_図形
  6
CONTINUOUS
 62
    7
 10
74.58715571360807
 20
80.883195788395028
 11
74.58715571360807
 21
60.883195788399576
  0
LINE
  8
_0-f_図形
  6
CONTINUOUS
 62
    7
 10
74.58715571360807
 20
80.883195788395028
 11
72.587155713606478
 21
80.883195788395028
  0
LINE
  8
_0-f_図形
  6
CONTINUOUS
 62
    7
 10
59.287155587978702
 20
66.883195788398666
 11
64.287155587977566
 21
66.883195788398666
  0
LINE
  8
_0-f_図形
  6
CONTINUOUS
 62
    7
 10
59.287155587978702
 20
66.883195788398666
 11
59.287155587978702
 21
74.883195788400485
  0
LINE
  8
_0-f_図形
  6
CONTINUOUS
 62
    7
 10
60.287155587977793
 20
65.883195788395028
 11
60.287155587977793
 21
75.883195788399576
  0
LINE
  8
_0-f_図形
  6
CONTINUOUS
 62
    7
 10
59.287155587978702
 20
74.883195788400485
 11
60.287155587977793
 21
75.883195788399576
  0
LINE
  8
_0-f_図形
  6
CONTINUOUS
 62
    7
 10
59.287155587978702
 20
66.883195788398666
 11
60.287155587977793
 21
65.883195788395028
  0
LINE
  8
_0-f_図形
  6
CONTINUOUS
 62
    7
 10
59.287155587978702
 20
74.883195788400485
 11
64.287155587977566
 21
74.883195788400485
  0
LINE
  8
_0-f_図形
  6
CONTINUOUS
 62
    7
 10
60.287155587977793
 20
65.883195788395028
 11
64.287155587977566
 21
65.883195788395028
  0
LINE
  8
_0-f_図形
  6
CONTINUOUS
 62
    7
 10
60.287155587977793
 20
75.883195788399576
 11
64.287155587977566
 21
75.883195788399576
  0
LINE
  8
_0-f_図形
  6
CONTINUOUS
 62
    7
 10
72.587155587975815
 20
79.383195939346876
 11
72.587155587975815
 21
62.38319593934682
  0
LINE
  8
_0-f_図形
  6
CONTINUOUS
 62
    7
 10
65.787155587975747
 20
62.63319593934682
 11
65.787155587975747
 21
79.133195939346848
  0
LINE
  8
_0-f_図形
  6
CONTINUOUS
 62
    7
 10
64.287155587975747
 20
78.383195939346876
 11
64.287155587975747
 21
63.38319593934682
  0
LINE
  8
_0-f_図形
  6
CONTINUOUS
 62
    7
 10
66.682048587975771
 20
61.083195939346837
 11
71.836600087975796
 21
61.083195939346837
  0
LINE
  8
_0-f_図形
  6
CONTINUOUS
 62
    7
 10
66.682048587975771
 20
65.983195939346814
 11
71.836600087975796
 21
65.983195939346814
  0
LINE
  8
_0-f_図形
  6
CONTINUOUS
 62
    7
 10
65.787155587975747
 20
62.63319593934682
 11
66.682048587975771
 21
61.083195939346837
  0
LINE
  8
_0-f_図形
  6
CONTINUOUS
 62
    7
 10
65.037155587975747
 20
62.63319593934682
 11
65.787155587975747
 21
62.63319593934682
  0
LINE
  8
_0-f_図形
  6
CONTINUOUS
 62
    7
 10
72.587155587975815
 20
62.38319593934682
 11
71.836600087975796
 21
61.083195939346837
  0
LINE
  8
_0-f_図形
  6
CONTINUOUS
 62
    7
 10
65.787155587975747
 20
79.133195939346848
 11
66.682048587975771
 21
80.683195939346888
  0
LINE
  8
_0-f_図形
  6
CONTINUOUS
 62
    7
 10
72.587155587975815
 20
79.383195939346876
 11
71.836600087975796
 21
80.683195939346888
  0
LINE
  8
_0-f_図形
  6
CONTINUOUS
 62
    7
 10
66.682048587975771
 20
75.783195939346939
 11
71.836600087975796
 21
75.783195939346911
  0
LINE
  8
_0-f_図形
  6
CONTINUOUS
 62
    7
 10
65.037155587975747
 20
79.133195939346848
 11
65.787155587975747
 21
79.133195939346848
  0
LINE
  8
_0-f_図形
  6
CONTINUOUS
 62
    7
 10
66.682048587975771
 20
80.683195939346888
 11
71.836600087975796
 21
80.683195939346888
  0
ARC
  8
_0-f_図形
  6
CONTINUOUS
 62
    7
 10
75.761917587975802
 20
70.173180939346821
 40
10
 50
175.92848900000004
 51
204.77137599999995
  0
ARC
  8
_0-f_図形
  6
CONTINUOUS
 62
    7
 10
62.635603087975767
 20
69.900037439346846
 40
10
 50
336.94066600000002
 51
5.6421969999999266
  0
ARC
  8
_0-f_図形
  6
CONTINUOUS
 62
    7
 10
65.037155587975747
 20
63.38319593934682
 40
0.75
 50
180
 51
270
  0
ARC
  8
_0-f_図形
  6
CONTINUOUS
 62
    7
 10
70.765519087975861
 20
63.097841939346921
 40
5
 50
144.75522000000001
 51
185.332145
  0
ARC
  8
_0-f_図形
  6
CONTINUOUS
 62
    7
 10
67.660110087975738
 20
63.234208939346928
 40
5
 50
350.20040299999999
 51
33.353117000000388
  0
ARC
  8
_0-f_図形
  6
CONTINUOUS
 62
    7
 10
75.761917587975802
 20
71.593210939346818
 40
10
 50
155.228624
 51
184.07151099999999
  0
ARC
  8
_0-f_図形
  6
CONTINUOUS
 62
    7
 10
70.765519087975861
 20
78.66854993934686
 40
5
 50
174.667855
 51
215.24477999999999
  0
ARC
  8
_0-f_図形
  6
CONTINUOUS
 62
    7
 10
65.037155587975747
 20
78.383195939346876
 40
0.75
 50
90
 51
180
  0
ARC
  8
_0-f_図形
  6
CONTINUOUS
 62
    7
 10
62.635603087975767
 20
71.866354439346821
 40
10
 50
354.35780300000005
 51
23.059333999999964
  0
ARC
  8
_0-f_図形
  6
CONTINUOUS
 62
    7
 10
67.660110087975738
 20
78.532182939346825
 40
5
 50
326.64688299999892
 51
9.7995970000000749
  0
LINE
  8
_0-7_文字
  6
CONTINUOUS
 62
    7
 10
143.02731757707551
 20
55.717399634466375
 11
143.02731757707551
 21
46.717399634466375
  0
LINE
  8
_0-7_文字
  6
CONTINUOUS
 62
    7
 10
142.02731757707551
 20
56.717399634466375
 11
142.02731757707551
 21
45.717399634466375
  0
TEXT
  8
_0-7_文字
 62
    7
 10
153.02731757707551
 20
47.217399634466375
 40
8
 41
0.8
 50
0
  1
断面図 S=1/2
  0
LINE
  8
_0-7_文字
  6
CONTINUOUS
 62
    7
 10
143.02731757707551
 20
46.717399634466375
 11
201.42731757707551
 21
46.717399634466375
  0
LINE
  8
_0-7_文字
  6
CONTINUOUS
 62
    7
 10
143.02731757707551
 20
55.717399634466375
 11
201.42731757707551
 21
55.717399634466375
  0
LINE
  8
_0-7_文字
  6
CONTINUOUS
 62
    7
 10
201.42731757707551
 20
55.717399634466375
 11
201.42731757707551
 21
46.717399634466375
  0
LINE
  8
_0-7_文字
  6
CONTINUOUS
 62
    7
 10
142.02731757707551
 20
45.717399634466375
 11
202.42731757707551
 21
45.717399634466375
  0
LINE
  8
_0-7_文字
  6
CONTINUOUS
 62
    7
 10
202.42731757707551
 20
45.717399634466375
 11
202.42731757707551
 21
56.717399634466375
  0
LINE
  8
_0-7_文字
  6
CONTINUOUS
 62
    7
 10
202.42731757707551
 20
56.717399634466375
 11
142.02731757707551
 21
56.717399634466375
  0
LINE
  8
_0-2_製品
  6
CONTINUOUS
 62
   83
 10
191.69715851373593
 20
209.93337550101256
 11
191.68414774896218
 21
210.58023678444204
  0
LINE
  8
_0-2_製品
  6
CONTINUOUS
 62
   83
 10
191.68414774896218
 20
210.58023678444204
 11
191.66873282113232
 21
211.22469390481547
  0
LINE
  8
_0-2_製品
  6
CONTINUOUS
 62
   83
 10
191.66873282113232
 20
211.22469390481547
 11
191.6504894661777
 21
211.86660544077665
  0
LINE
  8
_0-2_製品
  6
CONTINUOUS
 62
   83
 10
191.6504894661777
 20
211.86660544077665
 11
191.62970052681084
 21
212.50568854961301
  0
LINE
  8
_0-2_製品
  6
CONTINUOUS
 62
   83
 10
191.62970052681084
 20
212.50568854961301
 11
191.60650742438787
 21
213.14236749539333
  0
LINE
  8
_0-2_製品
  6
CONTINUOUS
 62
   83
 10
191.60650742438787
 20
213.14236749539333
 11
191.5806273161964
 21
213.77664227811766
  0
LINE
  8
_0-2_製品
  6
CONTINUOUS
 62
   83
 10
191.5806273161964
 20
213.77664227811766
 11
191.55220162359268
 21
214.40808863371728
  0
LINE
  8
_0-2_製品
  6
CONTINUOUS
 62
   83
 10
191.55220162359268
 20
214.40808863371728
 11
191.52123034657683
 21
215.03698940490466
  0
LINE
  8
_0-2_製品
  6
CONTINUOUS
 62
   83
 10
191.52123034657683
 20
215.03698940490466
 11
191.4877134851485
 21
215.66362743439214
  0
LINE
  8
_0-2_製品
  6
CONTINUOUS
 62
   83
 10
191.4877134851485
 20
215.66362743439214
 11
191.45165103930805
 21
216.28743703675497
  0
LINE
  8
_0-2_製品
  6
CONTINUOUS
 62
   83
 10
191.45165103930805
 20
216.28743703675497
 11
191.41290158769897
 21
216.90855963334911
  0
LINE
  8
_0-2_製品
  6
CONTINUOUS
 62
   83
 10
191.41290158769897
 20
216.90855963334911
 11
191.37160655167764
 21
217.52741948824359
  0
LINE
  8
_0-2_製品
  6
CONTINUOUS
 62
   83
 10
191.37160655167764
 20
217.52741948824359
 11
191.32790735260033
 21
218.14359233736957
  0
LINE
  8
_0-2_製品
  6
CONTINUOUS
 62
   83
 10
191.32790735260033
 20
218.14359233736957
 11
191.28152114775452
 21
218.75707818072706
  0
LINE
  8
_0-2_製品
  6
CONTINUOUS
 62
   83
 10
191.28152114775452
 20
218.75707818072706
 11
191.23244793714019
 21
219.36815986102846
  0
LINE
  8
_0-2_製品
  6
CONTINUOUS
 62
   83
 10
191.23244793714019
 20
219.36815986102846
 11
191.18097056346977
 21
219.97655453556132
  0
LINE
  8
_0-2_製品
  6
CONTINUOUS
 62
   83
 10
191.18097056346977
 20
219.97655453556132
 11
191.1269476053871
 21
220.58240362568199
  0
LINE
  8
_0-2_製品
  6
CONTINUOUS
 62
   83
 10
191.1269476053871
 20
220.58240362568199
 11
191.07023764153604
 21
221.18584855274662
  0
LINE
  8
_0-2_製品
  6
CONTINUOUS
 62
   83
 10
191.07023764153604
 20
221.18584855274662
 11
191.01112351462888
 21
221.78660647404274
  0
LINE
  8
_0-2_製品
  6
CONTINUOUS
 62
   83
 10
191.01112351462888
 20
221.78660647404274
 11
190.9493223819531
 21
222.38467738957021
  0
LINE
  8
_0-2_製品
  6
CONTINUOUS
 62
   83
 10
190.9493223819531
 20
222.38467738957021
 11
190.88497566486507
 21
222.98048556339802
  0
LINE
  8
_0-2_製品
  6
CONTINUOUS
 62
   83
 10
190.88497566486507
 20
222.98048556339802
 11
190.81808336336491
 21
223.57346531010108
  0
LINE
  8
_0-2_製品
  6
CONTINUOUS
 62
   83
 10
190.81808336336491
 20
223.57346531010108
 11
190.74864547745227
 21
224.16389947239185
  0
LINE
  8
_0-2_製品
  6
CONTINUOUS
 62
   83
 10
190.74864547745227
 20
224.16389947239185
 11
190.67652058577124
 21
224.75192947162651
  0
LINE
  8
_0-2_製品
  6
CONTINUOUS
 62
   83
 10
190.67652058577124
 20
224.75192947162651
 11
190.60185010967808
 21
225.33713104373658
  0
LINE
  8
_0-2_製品
  6
CONTINUOUS
 62
   83
 10
190.60185010967808
 20
225.33713104373658
 11
190.52477547052871
 21
225.91992845279057
  0
LINE
  8
_0-2_製品
  6
CONTINUOUS
 62
   83
 10
190.52477547052871
 20
225.91992845279057
 11
190.44487240425457
 21
226.50018027743215
  0
LINE
  8
_0-2_製品
  6
CONTINUOUS
 62
   83
 10
190.44487240425457
 20
226.50018027743215
 11
190.3627065962807
 21
227.0778865176616
  0
LINE
  8
_0-2_製品
  6
CONTINUOUS
 62
   83
 10
190.3627065962807
 20
227.0778865176616
 11
190.27785378253833
 21
227.65290575212254
  0
LINE
  8
_0-2_製品
  6
CONTINUOUS
 62
   83
 10
190.27785378253833
 20
227.65290575212254
 11
190.19031396302745
 21
228.22552082352738
  0
LINE
  8
_0-2_製品
  6
CONTINUOUS
 62
   83
 10
190.19031396302745
 20
228.22552082352738
 11
190.10036998046047
 21
228.79544888916371
  0
LINE
  8
_0-2_製品
  6
CONTINUOUS
 62
   83
 10
190.10036998046047
 20
228.79544888916371
 11
190.00788041348136
 21
229.36283137038785
  0
LINE
  8
_0-2_製品
  6
CONTINUOUS
 62
   83
 10
190.00788041348136
 20
229.36283137038785
 11
189.91256241937725
 21
229.92766826719958
  0
LINE
  8
_0-2_製品
  6
CONTINUOUS
 62
   83
 10
189.91256241937725
 20
229.92766826719958
 11
189.81498168357365
 21
230.48995957959914
  0
LINE
  8
_0-2_製品
  6
CONTINUOUS
 62
   83
 10
189.81498168357365
 20
230.48995957959914
 11
189.71471394200142
 21
231.04956388623026
  0
LINE
  8
_0-2_製品
  6
CONTINUOUS
 62
   83
 10
189.71471394200142
 20
231.04956388623026
 11
189.61175919466058
 21
231.60676402980516
  0
LINE
  8
_0-2_製品
  6
CONTINUOUS
 62
   83
 10
189.61175919466058
 20
231.60676402980516
 11
189.50640028426386
 21
232.1612771676117
  0
LINE
  8
_0-2_製品
  6
CONTINUOUS
 62
   83
 10
189.50640028426386
 20
232.1612771676117
 11
189.39849578945467
 21
232.71324472100591
  0
LINE
  8
_0-2_製品
  6
CONTINUOUS
 62
   83
 10
189.39849578945467
 20
232.71324472100591
 11
189.28776286752094
 21
233.26266668998784
  0
LINE
  8
_0-2_製品
  6
CONTINUOUS
 62
   83
 10
189.28776286752094
 20
233.26266668998784
 11
189.17476720388737
 21
233.80954307455755
  0
LINE
  8
_0-2_製品
  6
CONTINUOUS
 62
   83
 10
189.17476720388737
 20
233.80954307455755
 11
189.05908453448518
 21
234.35373245335865
  0
LINE
  8
_0-2_製品
  6
CONTINUOUS
 62
   83
 10
189.05908453448518
 20
234.35373245335865
 11
188.94085628067086
 21
234.89565909046007
  0
LINE
  8
_0-2_製品
  6
CONTINUOUS
 62
   83
 10
188.94085628067086
 20
234.89565909046007
 11
188.82008244244417
 21
235.43475730043667
  0
LINE
  8
_0-2_製品
  6
CONTINUOUS
 62
   83
 10
188.82008244244417
 20
235.43475730043667
 11
188.69676301980525
 21
235.97130992600103
  0
LINE
  8
_0-2_製品
  6
CONTINUOUS
 62
   83
 10
188.69676301980525
 20
235.97130992600103
 11
188.57061517004155
 21
236.50531696715314
  0
LINE
  8
_0-2_製品
  6
CONTINUOUS
 62
   83
 10
188.57061517004155
 20
236.50531696715314
 11
188.44220457857801
 21
237.03677842389291
  0
LINE
  8
_0-2_製品
  6
CONTINUOUS
 62
   83
 10
188.44220457857801
 20
237.03677842389291
 11
188.31110698134609
 21
237.5655528748643
  0
LINE
  8
_0-2_製品
  6
CONTINUOUS
 62
   83
 10
188.31110698134609
 20
237.5655528748643
 11
188.1774637997018
 21
238.0920645841357
  0
LINE
  8
_0-2_製品
  6
CONTINUOUS
 62
   83
 10
188.1774637997018
 20
238.0920645841357
 11
188.04127503364526
 21
238.61574786628253
  0
LINE
  8
_0-2_製品
  6
CONTINUOUS
 62
   83
 10
188.04127503364526
 20
238.61574786628253
 11
187.90254068317648
 21
239.13688556401701
  0
LINE
  8
_0-2_製品
  6
CONTINUOUS
 62
   83
 10
187.90254068317648
 20
239.13688556401701
 11
187.76111932693919
 21
239.65561909869544
  0
LINE
  8
_0-2_製品
  6
CONTINUOUS
 62
   83
 10
187.76111932693919
 20
239.65561909869544
 11
187.61729380764581
 21
240.17166562760539
  0
LINE
  8
_0-2_製品
  6
CONTINUOUS
 62
   83
 10
187.61729380764581
 20
240.17166562760539
 11
187.47078128258403
 21
240.68502515074684
  0
LINE
  8
_0-2_製品
  6
CONTINUOUS
 62
   83
 10
187.47078128258403
 20
240.68502515074684
 11
187.32172317310989
 21
241.19612193218848
  0
LINE
  8
_0-2_製品
  6
CONTINUOUS
 62
   83
 10
187.32172317310989
 20
241.19612193218848
 11
187.1701194792235
 21
241.70439028650534
  0
LINE
  8
_0-2_製品
  6
CONTINUOUS
 62
   83
 10
187.1701194792235
 20
241.70439028650534
 11
187.01597020092476
 21
242.21011305640999
  0
LINE
  8
_0-2_製品
  6
CONTINUOUS
 62
   83
 10
187.01597020092476
 20
242.21011305640999
 11
186.85913391685762
 21
242.71343166325858
  0
LINE
  8
_0-2_製品
  6
CONTINUOUS
 62
   83
 10
186.85913391685762
 20
242.71343166325858
 11
186.69989346973449
 21
243.21406326433865
  0
LINE
  8
_0-2_製品
  6
CONTINUOUS
 62
   83
 10
186.69989346973449
 20
243.21406326433865
 11
186.53810743819901
 21
243.71214928100645
  0
LINE
  8
_0-2_製品
  6
CONTINUOUS
 62
   83
 10
186.53810743819901
 20
243.71214928100645
 11
186.37349297953864
 21
244.20768971326191
  0
LINE
  8
_0-2_製品
  6
CONTINUOUS
 62
   83
 10
186.37349297953864
 20
244.20768971326191
 11
186.20661577917866
 21
244.70068456110525
  0
LINE
  8
_0-2_製品
  6
CONTINUOUS
 62
   83
 10
186.20661577917866
 20
244.70068456110525
 11
186.03705157305006
 21
245.19099240317993
  0
LINE
  8
_0-2_製品
  6
CONTINUOUS
 62
   83
 10
186.03705157305006
 20
245.19099240317993
 11
185.86480036115319
 21
245.67889608219878
  0
LINE
  8
_0-2_製品
  6
CONTINUOUS
 62
   83
 10
185.86480036115319
 20
245.67889608219878
 11
185.69014498619998
 21
246.16411275544891
  0
LINE
  8
_0-2_製品
  6
CONTINUOUS
 62
   83
 10
185.69014498619998
 20
246.16411275544891
 11
185.51294402683465
 21
246.64678384428683
  0
LINE
  8
_0-2_製品
  6
CONTINUOUS
 62
   83
 10
185.51294402683465
 20
246.64678384428683
 11
185.3330560617008
 21
247.12705077006873
  0
LINE
  8
_0-2_製品
  6
CONTINUOUS
 62
   83
 10
185.3330560617008
 20
247.12705077006873
 11
185.1506225121546
 21
247.60448926872584
  0
LINE
  8
_0-2_製品
  6
CONTINUOUS
 62
   83
 10
185.1506225121546
 20
247.60448926872584
 11
184.96564337819638
 21
248.07938218297082
  0
LINE
  8
_0-2_製品
  6
CONTINUOUS
 62
   83
 10
184.96564337819638
 20
248.07938218297082
 11
184.77811865982557
 21
248.55201235551584
  0
LINE
  8
_0-2_製品
  6
CONTINUOUS
 62
   83
 10
184.77811865982557
 20
248.55201235551584
 11
184.58804835704262
 21
249.02181410093618
  0
LINE
  8
_0-2_製品
  6
CONTINUOUS
 62
   83
 10
184.58804835704262
 20
249.02181410093618
 11
184.39543246984744
 21
249.48907026194431
  0
LINE
  8
_0-2_製品
  6
CONTINUOUS
 62
   83
 10
184.39543246984744
 20
249.48907026194431
 11
184.20012957688374
 21
249.95392225989633
  0
LINE
  8
_0-2_製品
  6
CONTINUOUS
 62
   83
 10
184.20012957688374
 20
249.95392225989633
 11
184.00228109950768
 21
250.41594583072359
  0
LINE
  8
_0-2_製品
  6
CONTINUOUS
 62
   83
 10
184.00228109950768
 20
250.41594583072359
 11
183.80202845907564
 21
250.87556523849486
  0
LINE
  8
_0-2_製品
  6
CONTINUOUS
 62
   83
 10
183.80202845907564
 20
250.87556523849486
 11
183.59894739151883
 21
251.3326390618538
  0
LINE
  8
_0-2_製品
  6
CONTINUOUS
 62
   83
 10
183.59894739151883
 20
251.3326390618538
 11
183.39346216090615
 21
251.78702587944437
  0
LINE
  8
_0-2_製品
  6
CONTINUOUS
 62
   83
 10
183.39346216090615
 20
251.78702587944437
 11
183.185431345881
 21
252.23886711262253
  0
LINE
  8
_0-2_製品
  6
CONTINUOUS
 62
   83
 10
183.185431345881
 20
252.23886711262253
 11
182.97471352508734
 21
252.68830418274464
  0
LINE
  8
_0-2_製品
  6
CONTINUOUS
 62
   83
 10
182.97471352508734
 20
252.68830418274464
 11
182.76159154123792
 21
253.13505424709842
  0
LINE
  8
_0-2_製品
  6
CONTINUOUS
 62
   83
 10
182.76159154123792
 20
253.13505424709842
 11
182.54578255161965
 21
253.57911730568352
  0
LINE
  8
_0-2_製品
  6
CONTINUOUS
 62
   83
 10
182.54578255161965
 20
253.57911730568352
 11
182.32742797758925
 21
254.02091762256879
  0
LINE
  8
_0-2_製品
  6
CONTINUOUS
 62
   83
 10
182.32742797758925
 20
254.02091762256879
 11
182.10652781914661
 21
254.45988951232948
  0
LINE
  8
_0-2_製品
  6
CONTINUOUS
 62
   83
 10
182.10652781914661
 20
254.45988951232948
 11
181.88308207629171
 21
254.89631581767782
  0
LINE
  8
_0-2_製品
  6
CONTINUOUS
 62
   83
 10
181.88308207629171
 20
254.89631581767782
 11
181.6569493276682
 21
255.33033795997011
  0
LINE
  8
_0-2_製品
  6
CONTINUOUS
 62
   83
 10
181.6569493276682
 20
255.33033795997011
 11
181.4284124159887
 21
255.76167309649389
  0
LINE
  8
_0-2_製品
  6
CONTINUOUS
 62
   83
 10
181.4284124159887
 20
255.76167309649389
 11
181.19732991989696
 21
256.19046264860549
  0
LINE
  8
_0-2_製品
  6
CONTINUOUS
 62
   83
 10
181.19732991989696
 20
256.19046264860549
 11
180.96341899668045
 21
256.61670661630467
  0
LINE
  8
_0-2_製品
  6
CONTINUOUS
 62
   83
 10
180.96341899668045
 20
256.61670661630467
 11
180.7272453317641
 21
257.0404049995916
  0
LINE
  8
_0-2_製品
  6
CONTINUOUS
 62
   83
 10
180.7272453317641
 20
257.0404049995916
 11
180.48838466107935
 21
257.46141637711014
  0
LINE
  8
_0-2_製品
  6
CONTINUOUS
 62
   83
 10
180.48838466107935
 20
257.46141637711014
 11
180.24683698462599
 21
257.88002359157258
  0
LINE
  8
_0-2_製品
  6
CONTINUOUS
 62
   83
 10
180.24683698462599
 20
257.88002359157258
 11
180.00288514511664
 21
258.29594380026651
  0
LINE
  8
_0-2_製品
  6
CONTINUOUS
 62
   83
 10
180.00288514511664
 20
258.29594380026651
 11
179.75638772119493
 21
258.70931842454809
  0
LINE
  8
_0-2_製品
  6
CONTINUOUS
 62
   83
 10
179.75638772119493
 20
258.70931842454809
 11
179.50720329150482
 21
259.12028888577379
  0
LINE
  8
_0-2_製品
  6
CONTINUOUS
 62
   83
 10
179.50720329150482
 20
259.12028888577379
 11
179.25547327740247
 21
259.52843091987472
  0
LINE
  8
_0-2_製品
  6
CONTINUOUS
 62
   83
 10
179.25547327740247
 20
259.52843091987472
 11
179.00133910024402
 21
259.9341687909195
  0
LINE
  8
_0-2_製品
  6
CONTINUOUS
 62
   83
 10
179.00133910024402
 20
259.9341687909195
 11
178.74437649596081
 21
260.33736107755203
  0
LINE
  8
_0-2_製品
  6
CONTINUOUS
 62
   83
 10
178.74437649596081
 20
260.33736107755203
 11
178.48500972862149
 21
260.73786635841611
  0
LINE
  8
_0-2_製品
  6
CONTINUOUS
 62
   83
 10
178.48500972862149
 20
260.73786635841611
 11
178.22309737687004
 21
261.13582605486789
  0
LINE
  8
_0-2_製品
  6
CONTINUOUS
 62
   83
 10
178.22309737687004
 20
261.13582605486789
 11
177.95849801935009
 21
261.53138158826368
  0
LINE
  8
_0-2_製品
  6
CONTINUOUS
 62
   83
 10
177.95849801935009
 20
261.53138158826368
 11
177.69135307741789
 21
261.92410869453471
  0
LINE
  8
_0-2_製品
  6
CONTINUOUS
 62
   83
 10
177.69135307741789
 20
261.92410869453471
 11
177.42180397242947
 21
262.31443163774964
  0
LINE
  8
_0-2_製品
  6
CONTINUOUS
 62
   83
 10
177.42180397242947
 20
262.31443163774964
 11
177.1494264403164
 21
262.70220899655232
  0
LINE
  8
_0-2_製品
  6
CONTINUOUS
 62
   83
 10
177.1494264403164
 20
262.70220899655232
 11
176.87464474514735
 21
263.08729934958649
  0
LINE
  8
_0-2_製品
  6
CONTINUOUS
 62
   83
 10
176.87464474514735
 20
263.08729934958649
 11
176.59731746556594
 21
263.46984411820847
  0
LINE
  8
_0-2_製品
  6
CONTINUOUS
 62
   83
 10
176.59731746556594
 20
263.46984411820847
 11
176.31730318021613
 21
263.84998472377436
  0
LINE
  8
_0-2_製品
  6
CONTINUOUS
 62
   83
 10
176.31730318021613
 20
263.84998472377436
 11
176.03488473181022
 21
264.22743832357179
  0
LINE
  8
_0-2_製品
  6
CONTINUOUS
 62
   83
 10
176.03488473181022
 20
264.22743832357179
 11
175.74992069899207
 21
264.60234633895686
  0
LINE
  8
_0-2_製品
  6
CONTINUOUS
 62
   83
 10
175.74992069899207
 20
264.60234633895686
 11
175.64413752452646
 21
264.73924221179448
  0
LINE
  8
_0-2_製品
  6
CONTINUOUS
 62
   83
 10
175.66931052593674
 20
265.13465632383407
 11
177.522778820783
 21
266.98812461868027
  0
LINE
  8
_0-2_製品
  6
CONTINUOUS
 62
   83
 10
177.97094309869891
 20
266.96111313963888
 11
177.98706513331007
 21
266.9407484643408
  0
LINE
  8
_0-2_製品
  6
CONTINUOUS
 62
   83
 10
177.98706513331007
 20
266.9407484643408
 11
178.2897068356578
 21
266.54901130756332
  0
LINE
  8
_0-2_製品
  6
CONTINUOUS
 62
   83
 10
178.2897068356578
 20
266.54901130756332
 11
178.58952011088098
 21
266.15472856637376
  0
LINE
  8
_0-2_製品
  6
CONTINUOUS
 62
   83
 10
178.58952011088098
 20
266.15472856637376
 11
178.88650495897929
 21
265.75761739805944
  0
LINE
  8
_0-2_製品
  6
CONTINUOUS
 62
   83
 10
178.88650495897929
 20
265.75761739805944
 11
179.18094422266535
 21
265.3579606453327
  0
LINE
  8
_0-2_製品
  6
CONTINUOUS
 62
   83
 10
179.18094422266535
 20
265.3579606453327
 11
179.47255505922675
 21
264.95575830819388
  0
LINE
  8
_0-2_製品
  6
CONTINUOUS
 62
   83
 10
179.47255505922675
 20
264.95575830819388
 11
179.76147889001953
 21
264.55086896528644
  0
LINE
  8
_0-2_製品
  6
CONTINUOUS
 62
   83
 10
179.76147889001953
 20
264.55086896528644
 11
180.04757429368766
 21
264.14343403796681
  0
LINE
  8
_0-2_製品
  6
CONTINUOUS
 62
   83
 10
180.04757429368766
 20
264.14343403796681
 11
180.33098269158717
 21
263.73331210487856
  0
LINE
  8
_0-2_製品
  6
CONTINUOUS
 62
   83
 10
180.33098269158717
 20
263.73331210487856
 11
180.61156266236202
 21
263.32064458737818
  0
LINE
  8
_0-2_製品
  6
CONTINUOUS
 62
   83
 10
180.61156266236202
 20
263.32064458737818
 11
180.88945562736825
 21
262.90529006410907
  0
LINE
  8
_0-2_製品
  6
CONTINUOUS
 62
   83
 10
180.88945562736825
 20
262.90529006410907
 11
181.16437874389368
 21
262.48724853507173
  0
LINE
  8
_0-2_製品
  6
CONTINUOUS
 62
   83
 10
181.16437874389368
 20
262.48724853507173
 11
181.43689769736289
 21
262.06680284297812
  0
LINE
  8
_0-2_製品
  6
CONTINUOUS
 62
   83
 10
181.43689769736289
 20
262.06680284297812
 11
181.70644680235119
 21
261.64367014511606
  0
LINE
  8
_0-2_製品
  6
CONTINUOUS
 62
   83
 10
181.70644680235119
 20
261.64367014511606
 11
181.97330890157099
 21
261.21785044148555
  0
LINE
  8
_0-2_製品
  6
CONTINUOUS
 62
   83
 10
181.97330890157099
 20
261.21785044148555
 11
182.23734257366613
 21
260.78948515344274
  0
LINE
  8
_0-2_製品
  6
CONTINUOUS
 62
   83
 10
182.23734257366613
 20
260.78948515344274
 11
182.49868923999276
 21
260.35871570234394
  0
LINE
  8
_0-2_製品
  6
CONTINUOUS
 62
   83
 10
182.49868923999276
 20
260.35871570234394
 11
182.75720747919451
 21
259.92511782412032
  0
LINE
  8
_0-2_製品
  6
CONTINUOUS
 62
   83
 10
182.75720747919451
 20
259.92511782412032
 11
183.01303871262775
 21
259.4891157828406
  0
LINE
  8
_0-2_製品
  6
CONTINUOUS
 62
   83
 10
183.01303871262775
 20
259.4891157828406
 11
183.26590009758007
 21
259.05042673579248
  0
LINE
  8
_0-2_製品
  6
CONTINUOUS
 62
   83
 10
183.26590009758007
 20
259.05042673579248
 11
183.51621589812004
 21
258.60919210433212
  0
LINE
  8
_0-2_製品
  6
CONTINUOUS
 62
   83
 10
183.51621589812004
 20
258.60919210433212
 11
183.76384469289161
 21
258.16555330981566
  0
LINE
  8
_0-2_製品
  6
CONTINUOUS
 62
   83
 10
183.76384469289161
 20
258.16555330981566
 11
184.00864506053841
 21
257.71908608817455
  0
LINE
  8
_0-2_製品
  6
CONTINUOUS
 62
   83
 10
184.00864506053841
 20
257.71908608817455
 11
184.25047557970419
 21
257.27021470347728
  0
LINE
  8
_0-2_製品
  6
CONTINUOUS
 62
   83
 10
184.25047557970419
 20
257.27021470347728
 11
184.48976051445771
 21
256.81879773436776
  0
LINE
  8
_0-2_製品
  6
CONTINUOUS
 62
   83
 10
184.48976051445771
 20
256.81879773436776
 11
184.72635844344285
 21
256.3646937594898
  0
LINE
  8
_0-2_製品
  6
CONTINUOUS
 62
   83
 10
184.72635844344285
 20
256.3646937594898
 11
184.95998652394684
 21
255.90818562155579
  0
LINE
  8
_0-2_製品
  6
CONTINUOUS
 62
   83
 10
184.95998652394684
 20
255.90818562155579
 11
185.19106902003858
 21
255.44913189920948
  0
LINE
  8
_0-2_製品
  6
CONTINUOUS
 62
   83
 10
185.19106902003858
 20
255.44913189920948
 11
185.41932308900556
 21
254.98753259245086
  0
LINE
  8
_0-2_製品
  6
CONTINUOUS
 62
   83
 10
185.41932308900556
 20
254.98753259245086
 11
185.64489015220403
 21
254.52324627992374
  0
LINE
  8
_0-2_製品
  6
CONTINUOUS
 62
   83
 10
185.64489015220403
 20
254.52324627992374
 11
185.86748736692169
 21
254.05655580434072
  0
LINE
  8
_0-2_製品
  6
CONTINUOUS
 62
   83
 10
185.86748736692169
 20
254.05655580434072
 11
186.08753899722689
 21
253.58731974434525
  0
LINE
  8
_0-2_製品
  6
CONTINUOUS
 62
   83
 10
186.08753899722689
 20
253.58731974434525
 11
186.30476220040742
 21
253.1155380999376
  0
LINE
  8
_0-2_製品
  6
CONTINUOUS
 62
   83
 10
186.30476220040742
 20
253.1155380999376
 11
186.51915697646308
 21
252.64121087111766
  0
LINE
  8
_0-2_製品
  6
CONTINUOUS
 62
   83
 10
186.51915697646308
 20
252.64121087111766
 11
186.73100616810672
 21
252.16433805788552
  0
LINE
  8
_0-2_製品
  6
CONTINUOUS
 62
   83
 10
186.73100616810672
 20
252.16433805788552
 11
186.94002693262536
 21
251.68491966024098
  0
LINE
  8
_0-2_製品
  6
CONTINUOUS
 62
   83
 10
186.94002693262536
 20
251.68491966024098
 11
187.14607784866308
 21
251.20309709954043
  0
LINE
  8
_0-2_製品
  6
CONTINUOUS
 62
   83
 10
187.14607784866308
 20
251.20309709954043
 11
187.34958318028856
 21
250.71872895442769
  0
LINE
  8
_0-2_製品
  6
CONTINUOUS
 62
   83
 10
187.34958318028856
 20
250.71872895442769
 11
187.55054292750191
 21
250.23181522490268
  0
LINE
  8
_0-2_製品
  6
CONTINUOUS
 62
   83
 10
187.55054292750191
 20
250.23181522490268
 11
187.74839140487774
 21
249.7423559109653
  0
LINE
  8
_0-2_製品
  6
CONTINUOUS
 62
   83
 10
187.74839140487774
 20
249.7423559109653
 11
187.94383571919781
 21
249.25049243397197
  0
LINE
  8
_0-2_製品
  6
CONTINUOUS
 62
   83
 10
187.94383571919781
 20
249.25049243397197
 11
188.13631018503673
 21
248.75594195121008
  0
LINE
  8
_0-2_製品
  6
CONTINUOUS
 62
   83
 10
188.13631018503673
 20
248.75594195121008
 11
188.32609764510715
 21
248.25898730539214
  0
LINE
  8
_0-2_製品
  6
CONTINUOUS
 62
   83
 10
188.32609764510715
 20
248.25898730539214
 11
188.51319809940918
 21
247.75962849651822
  0
LINE
  8
_0-2_製品
  6
CONTINUOUS
 62
   83
 10
188.51319809940918
 20
247.75962849651822
 11
188.69747012658644
 21
247.25772410323205
  0
LINE
  8
_0-2_製品
  6
CONTINUOUS
 62
   83
 10
188.69747012658644
 20
247.25772410323205
 11
188.87919656935134
 21
246.75327412553352
  0
LINE
  8
_0-2_製品
  6
CONTINUOUS
 62
   83
 10
188.87919656935134
 20
246.75327412553352
 11
189.05795316363532
 21
246.24641998477904
  0
LINE
  8
_0-2_製品
  6
CONTINUOUS
 62
   83
 10
189.05795316363532
 20
246.24641998477904
 11
189.23416417350694
 21
245.73702025961217
  0
LINE
  8
_0-2_製品
  6
CONTINUOUS
 62
   83
 10
189.23416417350694
 20
245.73702025961217
 11
189.40754675625402
 21
245.22507495003316
  0
LINE
  8
_0-2_製品
  6
CONTINUOUS
 62
   83
 10
189.40754675625402
 20
245.22507495003316
 11
189.57838375458863
 21
244.71058405604185
  0
LINE
  8
_0-2_製品
  6
CONTINUOUS
 62
   83
 10
189.57838375458863
 20
244.71058405604185
 11
189.74625090444232
 21
244.19368899899445
  0
LINE
  8
_0-2_製品
  6
CONTINUOUS
 62
   83
 10
189.74625090444232
 20
244.19368899899445
 11
189.9114310485275
 21
243.67438977889111
  0
LINE
  8
_0-2_製品
  6
CONTINUOUS
 62
   83
 10
189.9114310485275
 20
243.67438977889111
 11
190.07406560820044
 21
243.15254497437542
  0
LINE
  8
_0-2_製品
  6
CONTINUOUS
 62
   83
 10
190.07406560820044
 20
243.15254497437542
 11
190.23387174074861
 21
242.6281545854475
  0
LINE
  8
_0-2_製品
  6
CONTINUOUS
 62
   83
 10
190.23387174074861
 20
242.6281545854475
 11
190.39099086752816
 21
242.10136003346344
  0
LINE
  8
_0-2_製品
  6
CONTINUOUS
 62
   83
 10
190.39099086752816
 20
242.10136003346344
 11
190.54542298853943
 21
241.57216131842353
  0
LINE
  8
_0-2_製品
  6
CONTINUOUS
 62
   83
 10
190.54542298853943
 20
241.57216131842353
 11
190.69716810378196
 21
241.04027559761496
  0
LINE
  8
_0-2_製品
  6
CONTINUOUS
 62
   83
 10
190.69716810378196
 20
241.04027559761496
 11
190.84608479189984
 21
240.5061271351066
  0
LINE
  8
_0-2_製品
  6
CONTINUOUS
 62
   83
 10
190.84608479189984
 20
240.5061271351066
 11
190.99231447424921
 21
239.96929166682975
  0
LINE
  8
_0-2_製品
  6
CONTINUOUS
 62
   83
 10
190.99231447424921
 20
239.96929166682975
 11
191.13599857218634
 21
239.43019345685317
  0
LINE
  8
_0-2_製品
  6
CONTINUOUS
 62
   83
 10
191.13599857218634
 20
239.43019345685317
 11
191.27671282164243
 21
238.88840824110804
  0
LINE
  8
_0-2_製品
  6
CONTINUOUS
 62
   83
 10
191.27671282164243
 20
238.88840824110804
 11
191.41488148668628
 21
238.34436028366309
  0
LINE
  8
_0-2_製品
  6
CONTINUOUS
 62
   83
 10
191.41488148668628
 20
238.34436028366309
 11
191.550504567318
 21
237.79776674180593
  0
LINE
  8
_0-2_製品
  6
CONTINUOUS
 62
   83
 10
191.550504567318
 20
237.79776674180593
 11
191.68329922082484
 21
237.24862761553646
  0
LINE
  8
_0-2_製品
  6
CONTINUOUS
 62
   83
 10
191.68329922082484
 20
237.24862761553646
 11
191.81340686856305
 21
236.69708432621096
  0
LINE
  8
_0-2_製品
  6
CONTINUOUS
 62
   83
 10
191.81340686856305
 20
236.69708432621096
 11
191.94068608917661
 21
236.14299545247314
  0
LINE
  8
_0-2_製品
  6
CONTINUOUS
 62
   83
 10
191.94068608917661
 20
236.14299545247314
 11
192.06541972537804
 21
235.58664383703564
  0
LINE
  8
_0-2_製品
  6
CONTINUOUS
 62
   83
 10
192.06541972537804
 20
235.58664383703564
 11
192.18732493445447
 21
235.02774663718571
  0
LINE
  8
_0-2_製品
  6
CONTINUOUS
 62
   83
 10
192.18732493445447
 20
235.02774663718571
 11
192.30668455911876
 21
234.46630385292363
  0
LINE
  8
_0-2_製品
  6
CONTINUOUS
 62
   83
 10
192.30668455911876
 20
234.46630385292363
 11
192.42321575665829
 21
233.90231548424921
  0
LINE
  8
_0-2_製品
  6
CONTINUOUS
 62
   83
 10
192.42321575665829
 20
233.90231548424921
 11
192.53720136978558
 21
233.33606437387502
  0
LINE
  8
_0-2_製品
  6
CONTINUOUS
 62
   83
 10
192.53720136978558
 20
233.33606437387502
 11
192.64849997714435
 21
232.76712625773237
  0
LINE
  8
_0-2_製品
  6
CONTINUOUS
 62
   83
 10
192.64849997714435
 20
232.76712625773237
 11
192.75697015737836
 21
232.19592539988986
  0
LINE
  8
_0-2_製品
  6
CONTINUOUS
 62
   83
 10
192.75697015737836
 20
232.19592539988986
 11
192.86289475320012
 21
231.62217895763501
  0
LINE
  8
_0-2_製品
  6
CONTINUOUS
 62
   83
 10
192.86289475320012
 20
231.62217895763501
 11
192.96613234325338
 21
231.04602835232424
  0
LINE
  8
_0-2_製品
  6
CONTINUOUS
 62
   83
 10
192.96613234325338
 20
231.04602835232424
 11
193.06682434889439
 21
230.4673321626012
  0
LINE
  8
_0-2_製品
  6
CONTINUOUS
 62
   83
 10
193.06682434889439
 20
230.4673321626012
 11
193.16468792741051
 21
229.88637323117837
  0
LINE
  8
_0-2_製品
  6
CONTINUOUS
 62
   83
 10
193.16468792741051
 20
229.88637323117837
 11
193.25986450015824
 21
229.30272729398695
  0
LINE
  8
_0-2_製品
  6
CONTINUOUS
 62
   83
 10
193.25986450015824
 20
229.30272729398695
 11
193.35249548849362
 21
228.71653577238328
  0
LINE
  8
_0-2_製品
  6
CONTINUOUS
 62
   83
 10
193.35249548849362
 20
228.71653577238328
 11
193.44229804970445
 21
228.12808150907986
  0
LINE
  8
_0-2_製品
  6
CONTINUOUS
 62
   83
 10
193.44229804970445
 20
228.12808150907986
 11
193.52955502650292
 21
227.5370816613642
  0
LINE
  8
_0-2_製品
  6
CONTINUOUS
 62
   83
 10
193.52955502650292
 20
227.5370816613642
 11
193.61412499753277
 21
226.94367765059241
  0
LINE
  8
_0-2_製品
  6
CONTINUOUS
 62
   83
 10
193.61412499753277
 20
226.94367765059241
 11
193.69600796279411
 21
226.34786947676457
  0
LINE
  8
_0-2_製品
  6
CONTINUOUS
 62
   83
 10
193.69600796279411
 20
226.34786947676457
 11
193.77534534364321
 21
225.74951571852455
  0
LINE
  8
_0-2_製品
  6
CONTINUOUS
 62
   83
 10
193.77534534364321
 20
225.74951571852455
 11
193.85171287601139
 21
225.14875779722848
  0
LINE
  8
_0-2_製品
  6
CONTINUOUS
 62
   83
 10
193.85171287601139
 20
225.14875779722848
 11
193.92581766667973
 21
224.54545429152017
  0
LINE
  8
_0-2_製品
  6
CONTINUOUS
 62
   83
 10
193.92581766667973
 20
224.54545429152017
 11
193.99695260886716
 21
223.93974662275573
  0
LINE
  8
_0-2_製品
  6
CONTINUOUS
 62
   83
 10
193.99695260886716
 20
223.93974662275573
 11
194.06568338799838
 21
223.33163479093525
  0
LINE
  8
_0-2_製品
  6
CONTINUOUS
 62
   83
 10
194.06568338799838
 20
223.33163479093525
 11
194.13158574000505
 21
222.72097737470256
  0
LINE
  8
_0-2_製品
  6
CONTINUOUS
 62
   83
 10
194.13158574000505
 20
222.72097737470256
 11
194.19494250759936
 21
222.10777437405761
  0
LINE
  8
_0-2_製品
  6
CONTINUOUS
 62
   83
 10
194.19494250759936
 20
222.10777437405761
 11
194.25547084806891
 21
221.4923086317128
  0
LINE
  8
_0-2_製品
  6
CONTINUOUS
 62
   83
 10
194.25547084806891
 20
221.4923086317128
 11
194.31373644683873
 21
220.87429730495586
  0
LINE
  8
_0-2_製品
  6
CONTINUOUS
 62
   83
 10
194.31373644683873
 20
220.87429730495586
 11
194.36903219712752
 21
220.25388181514273
  0
LINE
  8
_0-2_製品
  6
CONTINUOUS
 62
   83
 10
194.36903219712752
 20
220.25388181514273
 11
194.42178236300396
 21
219.6309207409173
  0
LINE
  8
_0-2_製品
  6
CONTINUOUS
 62
   83
 10
194.42178236300396
 20
219.6309207409173
 11
194.47184552311199
 21
219.00555550363595
  0
LINE
  8
_0-2_製品
  6
CONTINUOUS
 62
   83
 10
194.47184552311199
 20
219.00555550363595
 11
194.51936309880767
 21
218.37764468194231
  0
LINE
  8
_0-2_製品
  6
CONTINUOUS
 62
   83
 10
194.51936309880767
 20
218.37764468194231
 11
194.56419366873496
 21
217.74732969719261
  0
LINE
  8
_0-2_製品
  6
CONTINUOUS
 62
   83
 10
194.56419366873496
 20
217.74732969719261
 11
194.60619581153748
 21
217.11446912803069
  0
LINE
  8
_0-2_製品
  6
CONTINUOUS
 62
   83
 10
194.60619581153748
 20
217.11446912803069
 11
194.64579379128389
 21
216.4792043958127
  0
LINE
  8
_0-2_製品
  6
CONTINUOUS
 62
   83
 10
194.64579379128389
 20
216.4792043958127
 11
194.6827047652618
 21
215.84153550053867
  0
LINE
  8
_0-2_製品
  6
CONTINUOUS
 62
   83
 10
194.6827047652618
 20
215.84153550053867
 11
194.71707015482747
 21
215.20132102085236
  0
LINE
  8
_0-2_製品
  6
CONTINUOUS
 62
   83
 10
194.71707015482747
 20
215.20132102085236
 11
194.74874853862462
 21
214.55870237811001
  0
LINE
  8
_0-2_製品
  6
CONTINUOUS
 62
   83
 10
194.74874853862462
 20
214.55870237811001
 11
194.77773991665327
 21
213.91367957231165
  0
LINE
  8
_0-2_製品
  6
CONTINUOUS
 62
   83
 10
194.77773991665327
 20
213.91367957231165
 11
194.80418571026968
 21
213.26611118210099
  0
LINE
  8
_0-2_製品
  6
CONTINUOUS
 62
   83
 10
194.80418571026968
 20
213.26611118210099
 11
194.82780307676131
 21
212.61599720747807
  0
LINE
  8
_0-2_製品
  6
CONTINUOUS
 62
   83
 10
194.82780307676131
 20
212.61599720747807
 11
194.84901628019685
 21
211.96347906979909
  0
LINE
  8
_0-2_製品
  6
CONTINUOUS
 62
   83
 10
194.84901628019685
 20
211.96347906979909
 11
194.86754247786399
 21
211.30855676906418
  0
LINE
  8
_0-2_製品
  6
CONTINUOUS
 62
   83
 10
194.86754247786399
 20
211.30855676906418
 11
194.88352309111889
 21
210.65108888391697
  0
LINE
  8
_0-2_製品
  6
CONTINUOUS
 62
   83
 10
194.88352309111889
 20
210.65108888391697
 11
194.89681669860505
 21
209.99121683571366
  0
LINE
  8
_0-2_製品
  6
CONTINUOUS
 62
   83
 10
194.89681669860505
 20
209.99121683571366
 11
194.90742330032282
 21
209.32894062445428
  0
LINE
  8
_0-2_製品
  6
CONTINUOUS
 62
   83
 10
194.90742330032282
 20
209.32894062445428
 11
194.91548431762845
 21
208.6641188287827
  0
LINE
  8
_0-2_製品
  6
CONTINUOUS
 62
   83
 10
194.91548431762845
 20
208.6641188287827
 11
194.92071690780921
 21
207.99675144869892
  0
LINE
  8
_0-2_製品
  6
CONTINUOUS
 62
   83
 10
194.92071690780921
 20
207.99675144869892
 11
194.92354533493398
 21
207.32697990555894
  0
LINE
  8
_0-2_製品
  6
CONTINUOUS
 62
   83
 10
194.92354533493398
 20
207.32697990555894
 11
194.9238281776465
 21
206.65466277800681
  0
LINE
  8
_0-2_製品
  6
CONTINUOUS
 62
   83
 10
194.9238281776465
 20
206.65466277800681
 11
194.92128259323414
 21
205.98008290875487
  0
LINE
  8
_0-2_製品
  6
CONTINUOUS
 62
   83
 10
194.92128259323414
 20
205.98008290875487
 11
194.92114117187788
 21
205.94486899105169
  0
LINE
  8
_0-2_製品
  6
CONTINUOUS
 62
   83
 10
194.83317708829844
 20
205.7349996983956
 11
133.86544046490047
 21
144.76726307499774
  0
LINE
  8
_0-2_製品
  6
CONTINUOUS
 62
   83
 10
78.674907665153057
 20
94.102213674844222
 11
191.63578164512904
 21
207.06308765482015
  0
LINE
  8
_0-2_製品
  6
CONTINUOUS
 62
   83
 10
191.72374572870871
 20
207.27521968917614
 11
191.72360430735233
 21
207.31976741639087
  0
LINE
  8
_0-2_製品
  6
CONTINUOUS
 62
   83
 10
191.72360430735233
 20
207.31976741639087
 11
191.72077588022756
 21
207.97709388018183
  0
LINE
  8
_0-2_製品
  6
CONTINUOUS
 62
   83
 10
191.72077588022756
 20
207.97709388018183
 11
191.71554329004681
 21
208.63173333820433
  0
LINE
  8
_0-2_製品
  6
CONTINUOUS
 62
   83
 10
191.71554329004681
 20
208.63173333820433
 11
191.70776511545381
 21
209.28382721181458
  0
LINE
  8
_0-2_製品
  6
CONTINUOUS
 62
   83
 10
191.70776511545381
 20
209.28382721181458
 11
191.69715851373593
 21
209.93337550101256
  0
ARC
  8
_0-2_製品
  6
CONTINUOUS
 62
   83
 10
175.88144256029267
 20
264.92252428947808
 40
0.2999999999999998
 50
135.00000000000003
 51
217.68700000000004
  0
ARC
  8
_0-2_製品
  6
CONTINUOUS
 62
   83
 10
177.73491085513893
 20
266.77599258432429
 40
0.2999999999999998
 50
38.126000000000033
 51
135.00000000000009
  0
ARC
  8
_0-2_製品
  6
CONTINUOUS
 62
   83
 10
194.6210450539424
 20
205.94713173275159
 40
0.2999999999999998
 50
315.00000000000006
 51
359.57300000000004
  0
ARC
  8
_0-2_製品
  6
CONTINUOUS
 62
   83
 10
191.423649610773
 20
207.27521968917611
 40
0.2999999999999998
 50
315.00000000000006
 51
0.0160000000000664
  0
LINE
  8
_0-2_製品
  6
CONTINUOUS
 62
   83
 10
82.087122148446895
 20
58.383138887274526
 11
92.087026247987126
 21
58.383138887274526
  0
LINE
  8
_0-2_製品
  6
CONTINUOUS
 62
   83
 10
94.087007067895058
 20
60.383119707182487
 11
94.087148489251319
 21
66.193698970904904
  0
LINE
  8
_0-2_製品
  6
CONTINUOUS
 62
   83
 10
94.599376641542847
 20
66.405831005260836
 11
109.10086393147282
 21
51.904343715330896
  0
LINE
  8
_0-2_製品
  6
CONTINUOUS
 62
   83
 10
149.96795892879305
 20
107.48661367185565
 11
159.58828810819222
 21
97.86628449245643
  0
LINE
  8
_0-2_製品
  6
CONTINUOUS
 62
   83
 10
159.58828810819233
 20
97.442020423744538
 11
152.94148436503878
 21
90.795216680591011
  0
LINE
  8
_0-2_製品
  6
CONTINUOUS
 62
   83
 10
152.5172202963268
 20
90.795216680590954
 11
151.17371741207234
 21
92.138719564845388
  0
LINE
  8
_0-2_製品
  6
CONTINUOUS
 62
   83
 10
151.17371741207234
 20
92.562983633557394
 11
155.55777945542894
 21
96.947045676913945
  0
LINE
  8
_0-2_製品
  6
CONTINUOUS
 62
   83
 10
155.55777945542894
 20
97.371309745625922
 11
148.63195137641918
 21
104.29713782463566
  0
LINE
  8
_0-2_製品
  6
CONTINUOUS
 62
   83
 10
118.25945238275727
 20
129.16127499285449
 11
81.874990114090963
 21
92.776812724188147
  0
LINE
  8
_0-2_製品
  6
CONTINUOUS
 62
   83
 10
81.787308873223822
 20
92.564680689832215
 11
81.78716745186756
 21
83.682995254060472
  0
LINE
  8
_0-2_製品
  6
CONTINUOUS
 62
   83
 10
82.087122148446895
 20
83.383040557481138
 11
93.08715807929724
 21
83.383040557481138
  0
LINE
  8
_0-2_製品
  6
CONTINUOUS
 62
   83
 10
94.087148489251206
 20
82.383050147527115
 11
94.087148489251206
 21
71.443542557146259
  0
LINE
  8
_0-2_製品
  6
CONTINUOUS
 62
   83
 10
94.087148489251206
 20
71.443542557146259
 11
112.0707124124562
 21
53.459978633941262
  0
LINE
  8
_0-2_製品
  6
CONTINUOUS
 62
   83
 10
112.0707124124562
 20
53.459978633941262
 11
115.39411428403304
 21
56.783380505518068
  0
LINE
  8
_0-2_製品
  6
CONTINUOUS
 62
   83
 10
115.81837835274501
 20
56.783380505518039
 11
117.16188123699936
 21
55.439877621263577
  0
LINE
  8
_0-2_製品
  6
CONTINUOUS
 62
   83
 10
78.88718112086525
 20
65.633104714780188
 11
82.287091946166413
 21
65.633246136136393
  0
LINE
  8
_0-2_製品
  6
CONTINUOUS
 62
   83
 10
82.587188064102008
 20
65.333150018200797
 11
82.587046642745747
 21
61.88317603279171
  0
LINE
  8
_0-2_製品
  6
CONTINUOUS
 62
   83
 10
82.587046642745747
 20
61.88317603279171
 11
90.58711134373408
 21
61.883034611435448
  0
LINE
  8
_0-2_製品
  6
CONTINUOUS
 62
   83
 10
90.58711134373408
 20
61.883034611435448
 11
90.58711134373408
 21
79.883144833320245
  0
LINE
  8
_0-2_製品
  6
CONTINUOUS
 62
   83
 10
90.587111343734193
 20
79.883144833320216
 11
82.587188064102008
 21
79.883144833320216
  0
LINE
  8
_0-2_製品
  6
CONTINUOUS
 62
   83
 10
82.587188064102008
 20
79.883144833320188
 11
82.587046642745747
 21
76.433170847910986
  0
LINE
  8
_0-2_製品
  6
CONTINUOUS
 62
   83
 10
82.287091946166413
 20
76.133216151331737
 11
78.887039699509103
 21
76.133216151331737
  0
LINE
  8
_0-2_製品
  6
CONTINUOUS
 62
   83
 10
78.587085002929769
 20
76.433170847911072
 11
78.587226424285916
 21
93.89008164048829
  0
ARC
  8
_0-2_製品
  6
CONTINUOUS
 62
   83
 10
108.88873189711677
 20
51.692211680974879
 40
0.2999999999999998
 50
315.00000000000006
 51
45.00000000000005
  0
ARC
  8
_0-2_製品
  6
CONTINUOUS
 62
   83
 10
82.087122148446895
 20
58.083042769338931
 40
0.2999999999999998
 50
90.000000000000028
 51
180.00000000000006
  0
ARC
  8
_0-2_製品
  6
CONTINUOUS
 62
   83
 10
92.087026247987012
 20
60.383119707182544
 40
2
 50
270.00000000000006
 51
359.99900000000008
  0
ARC
  8
_0-2_製品
  6
CONTINUOUS
 62
   83
 10
94.387244607186801
 20
66.193698970904848
 40
0.2999999999999998
 50
45.000000000000099
 51
179.99900000000014
  0
ARC
  8
_0-2_製品
  6
CONTINUOUS
 62
   83
 10
149.29776312158441
 20
129.36973007194825
 40
21.800000000000001
 50
135.06400000000002
 51
271.18799999999999
  0
ARC
  8
_0-2_製品
  6
CONTINUOUS
 62
   83
 10
149.75582689443712
 20
107.27448163749972
 40
0.2999999999999998
 50
45.000000000000099
 51
91.188000000000102
  0
ARC
  8
_0-2_製品
  6
CONTINUOUS
 62
   83
 10
159.37615607383628
 20
97.654152458100498
 40
0.2999999999999998
 50
315.00000000000006
 51
45.00000000000005
  0
ARC
  8
_0-2_製品
  6
CONTINUOUS
 62
   83
 10
152.72935233068273
 20
91.007348714946971
 40
0.2999999999999998
 50
225.00000000000006
 51
315.00000000000006
  0
ARC
  8
_0-2_製品
  6
CONTINUOUS
 62
   83
 10
151.38584944642838
 20
92.350851599201405
 40
0.2999999999999998
 50
135.00000000000003
 51
225.00000000000006
  0
ARC
  8
_0-2_製品
  6
CONTINUOUS
 62
   83
 10
155.3456474210729
 20
97.159177711269905
 40
0.2999999999999998
 50
315.00000000000006
 51
45.00000000000005
  0
ARC
  8
_0-2_製品
  6
CONTINUOUS
 62
   83
 10
148.41981934206325
 20
104.08500579027964
 40
0.2999999999999998
 50
45.000000000000099
 51
88.011000000000138
  0
ARC
  8
_0-2_製品
  6
CONTINUOUS
 62
   83
 10
149.29776312158441
 20
129.36973007194825
 40
25
 50
185.482
 51
268.01100000000008
  0
ARC
  8
_0-2_製品
  6
CONTINUOUS
 62
   83
 10
124.11344800284434
 20
126.95283909385259
 40
0.2999999999999998
 50
5.4820000000000864
 51
119.40800000000009
  0
ARC
  8
_0-2_製品
  6
CONTINUOUS
 62
   83
 10
122.12478089143536
 20
130.48101908926103
 40
3.75
 50
293.13200000000006
 51
299.40800000000002
  0
ARC
  8
_0-2_製品
  6
CONTINUOUS
 62
   83
 10
123.23465569518572
 20
127.88310877518165
 40
0.925
 50
113.13200000000002
 51
293.13200000000006
  0
ARC
  8
_0-2_製品
  6
CONTINUOUS
 62
   83
 10
122.12478089143536
 20
130.48101908926103
 40
1.8999999999999999
 50
293.13200000000006
 51
194.90600000000006
  0
ARC
  8
_0-2_製品
  6
CONTINUOUS
 62
   83
 10
119.39478303063032
 20
129.7543961609137
 40
0.925
 50
221.09800000000004
 51
14.899000000000056
  0
ARC
  8
_0-2_製品
  6
CONTINUOUS
 62
   83
 10
118.47158441711321
 20
128.94914295849853
 40
0.2999999999999998
 50
41.096000000000103
 51
135.00000000000011
  0
ARC
  8
_0-2_製品
  6
CONTINUOUS
 62
   83
 10
82.087122148446895
 20
92.564680689832215
 40
0.2999999999999998
 50
135.00000000000003
 51
179.99900000000002
  0
ARC
  8
_0-2_製品
  6
CONTINUOUS
 62
   83
 10
82.086980727090634
 20
83.682995254060472
 40
0.2999999999999998
 50
179.99900000000005
 51
270.00100000000003
  0
ARC
  8
_0-2_製品
  6
CONTINUOUS
 62
   83
 10
93.08715807929724
 20
82.383191568883348
 40
1
 50
0.0000000000000508
 51
90.001000000000033
  0
ARC
  8
_0-2_製品
  6
CONTINUOUS
 62
   83
 10
115.60624631838908
 20
56.571248471162107
 40
0.2999999999999998
 50
45
 51
135.00000000000003
  0
ARC
  8
_0-2_製品
  6
CONTINUOUS
 62
   83
 10
116.94974920264343
 20
55.227745586907645
 40
0.2999999999999998
 50
315.00000000000006
 51
45.00000000000005
  0
ARC
  8
_0-2_製品
  6
CONTINUOUS
 62
   83
 10
78.88718112086525
 20
65.333008596844593
 40
0.2999999999999998
 50
90.002000000000038
 51
180.00000000000006
  0
ARC
  8
_0-2_製品
  6
CONTINUOUS
 62
   83
 10
82.287233367522674
 20
65.333291439557058
 40
0.2999999999999998
 50
359.9980000000001
 51
90.002000000000109
  0
ARC
  8
_0-2_製品
  6
CONTINUOUS
 62
   83
 10
82.286950524810152
 20
76.433170847911015
 40
0.2999999999999998
 50
270.00000000000006
 51
359.99800000000005
  0
ARC
  8
_0-2_製品
  6
CONTINUOUS
 62
   83
 10
78.88718112086525
 20
76.433170847911015
 40
0.2999999999999998
 50
180.00000000000006
 51
270.00000000000006
  0
ARC
  8
_0-2_製品
  6
CONTINUOUS
 62
   83
 10
78.887039699508989
 20
93.890081640488262
 40
0.2999999999999998
 50
135.00000000000003
 51
180.00000000000006
  0
LINE
  8
_0-5_鉄骨
  6
CONTINUOUS
 62
    7
 10
74.587155713607842
 20
44.890243446049141
 11
74.587155713607842
 21
388.77866763732385
  0
LINE
  8
_0-5_鉄骨
  6
CONTINUOUS
 62
    7
 10
28.587155713607842
 20
44.890243446049141
 11
28.587155713607842
 21
388.77866763732379
  0
LINE
  8
_0-5_鉄骨
  6
CONTINUOUS
 62
    7
 10
78.587155713607842
 20
44.890243446049141
 11
78.587155713607842
 21
388.77866763732385
  0
LINE
  8
_0-2_製品
  6
CONTINUOUS
 62
   83
 10
109.1008639314727
 20
51.480079646618918
 11
102.51102773090295
 21
44.890243446049141
  0
LINE
  8
_0-2_製品
  6
CONTINUOUS
 62
   83
 10
81.78716745186756
 20
44.890243446049141
 11
81.78716745186756
 21
58.083184190695164
  0
LINE
  8
_0-2_製品
  6
CONTINUOUS
 62
   83
 10
117.16188123699948
 20
55.015613552551713
 11
107.0365111304969
 21
44.890243446049141
  0
LINE
  8
_0-2_製品
  6
CONTINUOUS
 62
   83
 10
78.587226424285916
 20
44.890243446049141
 11
78.587226424285916
 21
65.333150018200826
  0
LINE
  8
_0-6_寸法
  6
CONTINUOUS
 62
    7
 10
41.099077426228746
 20
42.820779405748198
 11
41.099077426228803
 21
70.883195788395028
  0
LINE
  8
_0-6_寸法
  6
CONTINUOUS
 62
    7
 10
41.099077426228746
 20
42.820779405748198
 11
37.678875992972053
 21
52.217705613607279
  0
LINE
  8
_0-2_製品
  6
CONTINUOUS
 62
   83
 10
109.1008639314727
 20
291.48007964661889
 11
95.928454547461058
 21
278.30767026260719
  0
LINE
  8
_0-2_製品
  6
CONTINUOUS
 62
   83
 10
95.504190478749081
 20
278.30767026260725
 11
94.797083697562528
 21
279.0147770437938
  0
LINE
  8
_0-2_製品
  6
CONTINUOUS
 62
   83
 10
94.089976916376088
 20
279.0147770437938
 11
93.029316744596201
 21
277.95411687201397
  0
LINE
  8
_0-2_製品
  6
CONTINUOUS
 62
   83
 10
93.029316744596201
 20
277.95411687201397
 11
93.11190681663885
 21
277.5145792968284
  0
LINE
  8
_0-2_製品
  6
CONTINUOUS
 62
   83
 10
92.761606117238955
 20
277.16427859742862
 11
92.322209963409648
 21
277.24701009082742
  0
LINE
  8
_0-2_製品
  6
CONTINUOUS
 62
   83
 10
92.322209963409648
 20
277.24701009082742
 11
91.261549791629875
 21
276.18634991904759
  0
LINE
  8
_0-2_製品
  6
CONTINUOUS
 62
   83
 10
91.261549791629875
 20
275.47924313786103
 11
91.968656572816428
 21
274.77213635667448
  0
LINE
  8
_0-2_製品
  6
CONTINUOUS
 62
   83
 10
91.968656572816428
 20
274.34787228796256
 11
87.39212006362078
 21
269.77133577876702
  0
LINE
  8
_0-2_製品
  6
CONTINUOUS
 62
   83
 10
81.78716745186756
 20
272.15188146830963
 11
81.78716745186756
 21
298.08318419069514
  0
LINE
  8
_0-2_製品
  6
CONTINUOUS
 62
   83
 10
82.087122148446895
 20
298.38313888727453
 11
92.087026247987126
 21
298.38313888727453
  0
LINE
  8
_0-2_製品
  6
CONTINUOUS
 62
   83
 10
94.087007067895058
 20
300.38311970718246
 11
94.087148489251319
 21
306.1936989709049
  0
LINE
  8
_0-2_製品
  6
CONTINUOUS
 62
   83
 10
94.599376641542847
 20
306.40583100526084
 11
109.10086393147282
 21
291.90434371533087
  0
LINE
  8
_0-2_製品
  6
CONTINUOUS
 62
   83
 10
149.96795892879305
 20
347.48661367185565
 11
159.58828810819222
 21
337.86628449245643
  0
LINE
  8
_0-2_製品
  6
CONTINUOUS
 62
   83
 10
159.58828810819233
 20
337.44202042374451
 11
152.94148436503878
 21
330.79521668059101
  0
LINE
  8
_0-2_製品
  6
CONTINUOUS
 62
   83
 10
152.5172202963268
 20
330.79521668059095
 11
151.17371741207234
 21
332.13871956484536
  0
LINE
  8
_0-2_製品
  6
CONTINUOUS
 62
   83
 10
151.17371741207234
 20
332.56298363355739
 11
155.55777945542894
 21
336.94704567691394
  0
LINE
  8
_0-2_製品
  6
CONTINUOUS
 62
   83
 10
155.55777945542894
 20
337.37130974562592
 11
148.63195137641918
 21
344.29713782463563
  0
LINE
  8
_0-2_製品
  6
CONTINUOUS
 62
   83
 10
118.25945238275727
 20
369.16127499285449
 11
81.874990114090963
 21
332.77681272418812
  0
LINE
  8
_0-2_製品
  6
CONTINUOUS
 62
   83
 10
81.787308873223822
 20
332.56468068983219
 11
81.78716745186756
 21
323.68299525406047
  0
LINE
  8
_0-2_製品
  6
CONTINUOUS
 62
   83
 10
82.087122148446895
 20
323.38304055748114
 11
93.08715807929724
 21
323.38304055748114
  0
LINE
  8
_0-2_製品
  6
CONTINUOUS
 62
   83
 10
94.087148489251206
 20
322.38305014752711
 11
94.087148489251206
 21
311.44354255714626
  0
LINE
  8
_0-2_製品
  6
CONTINUOUS
 62
   83
 10
94.087148489251206
 20
311.44354255714626
 11
112.0707124124562
 21
293.45997863394126
  0
LINE
  8
_0-2_製品
  6
CONTINUOUS
 62
   83
 10
112.0707124124562
 20
293.45997863394126
 11
115.39411428403304
 21
296.78338050551804
  0
LINE
  8
_0-2_製品
  6
CONTINUOUS
 62
   83
 10
115.81837835274501
 20
296.78338050551804
 11
117.16188123699936
 21
295.43987762126358
  0
LINE
  8
_0-2_製品
  6
CONTINUOUS
 62
   83
 10
117.16188123699948
 20
295.01561355255171
 11
96.989114719240945
 21
274.84284703479318
  0
LINE
  8
_0-2_製品
  6
CONTINUOUS
 62
   83
 10
96.282007938054392
 20
274.84284703479318
 11
95.78703319122377
 21
275.33782178162375
  0
LINE
  8
_0-2_製品
  6
CONTINUOUS
 62
   83
 10
95.362769122511793
 20
275.33782178162369
 11
94.938505053799929
 21
274.91355771291182
  0
LINE
  8
_0-2_製品
  6
CONTINUOUS
 62
   83
 10
94.938505053799929
 20
274.48929364419985
 11
95.433479800630437
 21
273.99431889736928
  0
LINE
  8
_0-2_製品
  6
CONTINUOUS
 62
   83
 10
95.433479800630437
 20
273.28721211618273
 11
83.708376576351441
 21
261.56210889190368
  0
LINE
  8
_0-2_製品
  6
CONTINUOUS
 62
   83
 10
78.587226424285916
 20
263.68342923546328
 11
78.587226424285916
 21
305.3331500182008
  0
LINE
  8
_0-2_製品
  6
CONTINUOUS
 62
   83
 10
78.88718112086525
 20
305.63310471478019
 11
82.287091946166413
 21
305.63324613613639
  0
LINE
  8
_0-2_製品
  6
CONTINUOUS
 62
   83
 10
82.587188064102008
 20
305.3331500182008
 11
82.587046642745747
 21
301.88317603279171
  0
LINE
  8
_0-2_製品
  6
CONTINUOUS
 62
   83
 10
82.587046642745747
 20
301.88317603279171
 11
90.58711134373408
 21
301.88303461143545
  0
LINE
  8
_0-2_製品
  6
CONTINUOUS
 62
   83
 10
90.58711134373408
 20
301.88303461143545
 11
90.58711134373408
 21
319.88314483332022
  0
LINE
  8
_0-2_製品
  6
CONTINUOUS
 62
   83
 10
90.587111343734193
 20
319.88314483332022
 11
82.587188064102008
 21
319.88314483332022
  0
LINE
  8
_0-2_製品
  6
CONTINUOUS
 62
   83
 10
82.587188064102008
 20
319.88314483332016
 11
82.587046642745747
 21
316.43317084791096
  0
LINE
  8
_0-2_製品
  6
CONTINUOUS
 62
   83
 10
82.287091946166413
 20
316.13321615133174
 11
78.887039699509103
 21
316.13321615133174
  0
LINE
  8
_0-2_製品
  6
CONTINUOUS
 62
   83
 10
78.587085002929769
 20
316.43317084791107
 11
78.587226424285916
 21
333.89008164048829
  0
ARC
  8
_0-2_製品
  6
CONTINUOUS
 62
   83
 10
108.88873189711677
 20
291.69221168097488
 40
0.2999999999999998
 50
315.00000000000006
 51
45.00000000000005
  0
ARC
  8
_0-2_製品
  6
CONTINUOUS
 62
   83
 10
95.716322513105013
 20
278.51980229696318
 40
0.2999999999999998
 50
225.00000000000006
 51
315.00000000000006
  0
ARC
  8
_0-2_製品
  6
CONTINUOUS
 62
   83
 10
94.443530306969308
 20
278.66122365320052
 40
0.5
 50
45
 51
135.00000000000003
  0
ARC
  8
_0-2_製品
  6
CONTINUOUS
 62
   83
 10
92.817184710240269
 20
277.4591421251834
 40
0.2999999999999998
 50
259.34400000000005
 51
10.656000000000047
  0
ARC
  8
_0-2_製品
  6
CONTINUOUS
 62
   83
 10
91.615103182223095
 20
275.83279652845431
 40
0.5
 50
135.00000000000003
 51
225.00000000000006
  0
ARC
  8
_0-2_製品
  6
CONTINUOUS
 62
   83
 10
91.756524538460496
 20
274.56000432231855
 40
0.2999999999999998
 50
315.00000000000006
 51
45.00000000000005
  0
ARC
  8
_0-2_製品
  6
CONTINUOUS
 62
   83
 10
87.179988029264848
 20
269.98346781312296
 40
0.2999999999999998
 50
213.95900000000003
 51
315.00000000000006
  0
ARC
  8
_0-2_製品
  6
CONTINUOUS
 62
   83
 10
86.164017006056099
 20
269.2992712916469
 40
0.925
 50
33.955000000000048
 51
198.39500000000007
  0
ARC
  8
_0-2_製品
  6
CONTINUOUS
 62
   83
 10
83.483375198577789
 20
268.40817532599556
 40
1.8999999999999999
 50
116.61300000000003
 51
18.387
  0
ARC
  8
_0-2_製品
  6
CONTINUOUS
 62
   83
 10
82.275212552242522
 20
270.95050704707364
 40
0.9162
 50
292.93400000000003
 51
99.806000000000083
  0
ARC
  8
_0-2_製品
  6
CONTINUOUS
 62
   83
 10
82.087122148446895
 20
272.15174004695342
 40
0.2999999999999998
 50
180.00000000000006
 51
276.12100000000009
  0
ARC
  8
_0-2_製品
  6
CONTINUOUS
 62
   83
 10
82.087122148446895
 20
298.08304276933893
 40
0.2999999999999998
 50
90.000000000000028
 51
180.00000000000006
  0
ARC
  8
_0-2_製品
  6
CONTINUOUS
 62
   83
 10
92.087026247987012
 20
300.38311970718252
 40
2
 50
270.00000000000006
 51
359.99900000000008
  0
ARC
  8
_0-2_製品
  6
CONTINUOUS
 62
   83
 10
94.387244607186801
 20
306.19369897090485
 40
0.2999999999999998
 50
45.000000000000099
 51
179.99900000000014
  0
ARC
  8
_0-2_製品
  6
CONTINUOUS
 62
   83
 10
149.29776312158441
 20
369.36973007194825
 40
21.800000000000001
 50
135.06400000000002
 51
271.18799999999999
  0
ARC
  8
_0-2_製品
  6
CONTINUOUS
 62
   83
 10
149.75582689443712
 20
347.27448163749972
 40
0.2999999999999998
 50
45.000000000000099
 51
91.188000000000102
  0
ARC
  8
_0-2_製品
  6
CONTINUOUS
 62
   83
 10
159.37615607383628
 20
337.6541524581005
 40
0.2999999999999998
 50
315.00000000000006
 51
45.00000000000005
  0
ARC
  8
_0-2_製品
  6
CONTINUOUS
 62
   83
 10
152.72935233068273
 20
331.00734871494694
 40
0.2999999999999998
 50
225.00000000000006
 51
315.00000000000006
  0
ARC
  8
_0-2_製品
  6
CONTINUOUS
 62
   83
 10
151.38584944642838
 20
332.35085159920141
 40
0.2999999999999998
 50
135.00000000000003
 51
225.00000000000006
  0
ARC
  8
_0-2_製品
  6
CONTINUOUS
 62
   83
 10
155.3456474210729
 20
337.15917771126988
 40
0.2999999999999998
 50
315.00000000000006
 51
45.00000000000005
  0
ARC
  8
_0-2_製品
  6
CONTINUOUS
 62
   83
 10
148.41981934206325
 20
344.08500579027964
 40
0.2999999999999998
 50
45.000000000000099
 51
88.011000000000138
  0
ARC
  8
_0-2_製品
  6
CONTINUOUS
 62
   83
 10
149.29776312158441
 20
369.36973007194825
 40
25
 50
185.482
 51
268.01100000000008
  0
ARC
  8
_0-2_製品
  6
CONTINUOUS
 62
   83
 10
124.11344800284434
 20
366.95283909385256
 40
0.2999999999999998
 50
5.4820000000000864
 51
119.40800000000009
  0
ARC
  8
_0-2_製品
  6
CONTINUOUS
 62
   83
 10
122.12478089143536
 20
370.481019089261
 40
3.75
 50
293.13200000000006
 51
299.40800000000002
  0
ARC
  8
_0-2_製品
  6
CONTINUOUS
 62
   83
 10
123.23465569518572
 20
367.88310877518165
 40
0.925
 50
113.13200000000002
 51
293.13200000000006
  0
ARC
  8
_0-2_製品
  6
CONTINUOUS
 62
   83
 10
122.12478089143536
 20
370.481019089261
 40
1.8999999999999999
 50
293.13200000000006
 51
194.90600000000006
  0
ARC
  8
_0-2_製品
  6
CONTINUOUS
 62
   83
 10
119.39478303063032
 20
369.7543961609137
 40
0.925
 50
221.09800000000004
 51
14.899000000000056
  0
ARC
  8
_0-2_製品
  6
CONTINUOUS
 62
   83
 10
118.47158441711321
 20
368.9491429584985
 40
0.2999999999999998
 50
41.096000000000103
 51
135.00000000000011
  0
ARC
  8
_0-2_製品
  6
CONTINUOUS
 62
   83
 10
82.087122148446895
 20
332.56468068983219
 40
0.2999999999999998
 50
135.00000000000003
 51
179.99900000000002
  0
ARC
  8
_0-2_製品
  6
CONTINUOUS
 62
   83
 10
82.086980727090634
 20
323.68299525406047
 40
0.2999999999999998
 50
179.99900000000005
 51
270.00100000000003
  0
ARC
  8
_0-2_製品
  6
CONTINUOUS
 62
   83
 10
93.08715807929724
 20
322.38319156888332
 40
1
 50
0.0000000000000508
 51
90.001000000000033
  0
ARC
  8
_0-2_製品
  6
CONTINUOUS
 62
   83
 10
115.60624631838908
 20
296.57124847116211
 40
0.2999999999999998
 50
45
 51
135.00000000000003
  0
ARC
  8
_0-2_製品
  6
CONTINUOUS
 62
   83
 10
116.94974920264343
 20
295.22774558690764
 40
0.2999999999999998
 50
315.00000000000006
 51
45.00000000000005
  0
ARC
  8
_0-2_製品
  6
CONTINUOUS
 62
   83
 10
96.635561328647611
 20
275.19640042538646
 40
0.5
 50
225.00000000000006
 51
315.00000000000006
  0
ARC
  8
_0-2_製品
  6
CONTINUOUS
 62
   83
 10
95.574901156867725
 20
275.12568974726776
 40
0.2999999999999998
 50
45
 51
135.00000000000003
  0
ARC
  8
_0-2_製品
  6
CONTINUOUS
 62
   83
 10
95.150637088155861
 20
274.70142567855589
 40
0.2999999999999998
 50
135.00000000000003
 51
225.00000000000006
  0
ARC
  8
_0-2_製品
  6
CONTINUOUS
 62
   83
 10
95.079926410037217
 20
273.64076550677601
 40
0.5
 50
315.00000000000006
 51
45.00000000000005
  0
ARC
  8
_0-2_製品
  6
CONTINUOUS
 62
   83
 10
81.587056232791781
 20
263.68342923546334
 40
3
 50
180.00000000000006
 51
315.00000000000006
  0
ARC
  8
_0-2_製品
  6
CONTINUOUS
 62
   83
 10
78.88718112086525
 20
305.33300859684459
 40
0.2999999999999998
 50
90.002000000000038
 51
180.00000000000006
  0
ARC
  8
_0-2_製品
  6
CONTINUOUS
 62
   83
 10
82.287233367522674
 20
305.33329143955706
 40
0.2999999999999998
 50
359.9980000000001
 51
90.002000000000109
  0
ARC
  8
_0-2_製品
  6
CONTINUOUS
 62
   83
 10
82.286950524810152
 20
316.43317084791101
 40
0.2999999999999998
 50
270.00000000000006
 51
359.99800000000005
  0
ARC
  8
_0-2_製品
  6
CONTINUOUS
 62
   83
 10
78.88718112086525
 20
316.43317084791101
 40
0.2999999999999998
 50
180.00000000000006
 51
270.00000000000006
  0
ARC
  8
_0-2_製品
  6
CONTINUOUS
 62
   83
 10
78.887039699508989
 20
333.89008164048823
 40
0.2999999999999998
 50
135.00000000000003
 51
180.00000000000006
  0
LINE
  8
_0-2_製品
  6
CONTINUOUS
 62
   83
 10
151.68454139449688
 20
402.58636400459409
 11
133.86544046490047
 21
384.76726307499774
  0
LINE
  8
_0-2_製品
  6
CONTINUOUS
 62
   83
 10
78.674907665153057
 20
334.10221367484422
 11
147.15905799490298
 21
402.58636400459409
  0
POINT
  8
_0-6_寸法
 62
    7
 10
243.25482361634471
 20
140.68346092581888
  0
LINE
  8
_f-9__f-6_寸法
  6
CONTINUOUS
 62
    7
 10
243.25482361634471
 20
140.68346092581888
 11
243.25482361634471
 21
387.07599895277326
  0
TEXT
  8
_0-6_寸法
 62
    7
 10
242.85482361634473
 20
257.87972993929606
 40
6
 41
0.7999999999999999
 50
90
  1
246.4
  0
TEXT
  8
_f-7_文字
 62
    7
 10
537.07003153498852
 20
22.027989552243866
 40
6
 41
0.7999999999999999
 50
0
  1
納まり参考図
  0
LINE
  8
_0-6_寸法
  6
CONTINUOUS
 62
    7
 10
257.76548867219964
 20
387.07599895277326
 11
177.73500829720291
 21
387.07599895277326
  0
LINE
  8
_0-6_寸法
  6
CONTINUOUS
 62
    7
 10
257.76548867219964
 20
140.68346092581888
 11
82.24002298231909
 21
140.68346092581891
  0
TEXT
  8
_0-7_文字
 62
    7
 10
364.75590043455645
 20
196.2661080784585
 40
8
 41
0.8
 50
0
  1
小口ﾌﾀ
  0
ARC
  8
_0-6_寸法
  6
CONTINUOUS
 62
    7
 10
409.75061328322977
 20
227.27458770351686
 40
0.2999999999999998
 50
45.000000000023086
 51
91.18762018747671
  0
LINE
  8
_0-6_寸法
  6
CONTINUOUS
 62
   30
 10
409.96274531758536
 20
227.48671973787268
 11
419.79520653134182
 21
217.65425852411667
  0
LINE
  8
_0-6_寸法
  6
CONTINUOUS
 62
   30
 10
342.28187833496031
 20
196.13332221734785
 11
338.88182608830198
 21
196.13332221734785
  0
LINE
  8
_0-6_寸法
  6
CONTINUOUS
 62
   30
 10
338.88196750965835
 20
185.63321078079653
 11
342.28187833496077
 21
185.63335220215222
  0
ARC
  8
_0-6_寸法
  6
CONTINUOUS
 62
   30
 10
342.28173691360462
 20
196.43327691392696
 40
0.2999999999999998
 50
270.0000000002255
 51
359.99765133100283
  0
ARC
  8
_0-6_寸法
  6
CONTINUOUS
 62
   30
 10
342.28187833496031
 20
185.33325608421629
 40
0.2999999999999998
 50
359.99765133153591
 51
90.002383252974226
  0
ARC
  8
_0-6_寸法
  6
CONTINUOUS
 62
   30
 10
338.88182608830311
 20
196.4339840207077
 40
0.2999999999999998
 50
182.34782800322716
 51
270.13504719750114
  0
ARC
  8
_0-6_寸法
  6
CONTINUOUS
 62
   30
 10
338.88196750965903
 20
185.33311466286037
 40
0.2999999999999998
 50
90.002383252906171
 51
179.00392802186403
  0
ARC
  8
_0-6_寸法
  6
CONTINUOUS
 62
   30
 10
338.88182608830152
 20
213.89018770650486
 40
0.2999999999999998
 50
134.99999999984655
 51
179.99999999973105
  0
LINE
  8
_0-6_寸法
  6
CONTINUOUS
 62
   30
 10
338.58207792428402
 20
196.42169426207747
 11
338.5821805847263
 21
213.90476756203063
  0
CIRCLE
  8
_0-6_寸法
  6
CONTINUOUS
 62
   30
 10
346.08216298896241
 20
210.90818695807903
 40
4
  0
ARC
  8
_0-6_寸法
  6
CONTINUOUS
 62
   30
 10
409.29254951037751
 20
249.36983613796528
 40
21.800000000000001
 50
162.56464957225262
 51
271.18762018712971
  0
LINE
  8
_0-6_寸法
  6
CONTINUOUS
 62
   30
 10
384.48163483107214
 20
259.91426051798715
 11
338.66969405394593
 21
214.10231974086057
  0
LINE
  8
_0-6_寸法
  6
CONTINUOUS
 62
   30
 10
384.48163483107214
 20
259.91426051798715
 11
388.49413646439757
 21
255.90175888466175
  0
LINE
  8
_0-6_寸法
  6
CONTINUOUS
 62
   30
 10
342.58183303153919
 20
185.33339750557357
 11
342.58183303153919
 21
181.63328209880811
  0
LINE
  8
_0-6_寸法
  6
CONTINUOUS
 62
   30
 10
342.58183303153919
 20
181.63328209880811
 11
350.58189773252661
 21
181.63314067745242
  0
LINE
  8
_0-6_寸法
  6
DASHED1
 62
   30
 10
342.58199940864506
 20
181.63328209880811
 11
350.58206410963248
 21
181.63314067745242
  0
LINE
  8
_0-6_寸法
  6
CONTINUOUS
 62
   30
 10
342.58197445289466
 20
200.13325089933741
 11
342.58183303153965
 21
196.43327691392673
  0
LINE
  8
_0-6_寸法
  6
CONTINUOUS
 62
   30
 10
350.58189773252752
 20
200.13325089933673
 11
342.58197445289466
 21
200.13325089933673
  0
LINE
  8
_0-6_寸法
  6
CONTINUOUS
 62
   30
 10
350.58189773252707
 20
181.63314067745242
 11
350.58189773252707
 21
200.13325089933605
  0
ARC
  8
_0-6_寸法
  6
CONTINUOUS
 62
   30
 10
341.58176824592476
 20
143.68346092581888
 40
3
 50
179.99966355972057
 51
315.00000000000006
  0
LINE
  8
_0-6_寸法
  6
CONTINUOUS
 62
   30
 10
343.70308858948442
 20
141.56214058225922
 11
419.79520653134182
 21
217.65425852411667
  0
LINE
  8
_0-6_寸法
  6
CONTINUOUS
 62
   30
 10
338.5817682459766
 20
143.68347854179072
 11
338.58201284287225
 21
185.33832982083723
  0
CIRCLE
  8
_0-6_寸法
  6
CONTINUOUS
 62
    7
 10
382.11956728022835
 20
250.48112515527788
 40
4.7000000000000028
  0
LINE
  8
_0-e_
  6
CONTINUOUS
 62
    7
 10
380.01956728022844
 20
249.98112515527788
 11
380.01956728022844
 21
250.98112515527788
  0
LINE
  8
_0-e_
  6
CONTINUOUS
 62
    7
 10
384.21956728022826
 20
249.98112515527788
 11
384.21956728022826
 21
250.98112515527788
  0
LINE
  8
_0-e_
  6
CONTINUOUS
 62
    7
 10
381.61956728022835
 20
248.381125155278
 11
382.61956728022835
 21
248.381125155278
  0
LINE
  8
_0-e_
  6
CONTINUOUS
 62
    7
 10
381.61956728022835
 20
252.58112515527779
 11
382.61956728022835
 21
252.58112515527779
  0
LINE
  8
_0-e_
  6
CONTINUOUS
 62
    7
 10
381.61956728022835
 20
252.58112515527779
 11
381.59956728022837
 21
251.59112515527801
  0
LINE
  8
_0-e_
  6
CONTINUOUS
 62
    7
 10
382.61956728022835
 20
252.58112515527779
 11
382.63956728022833
 21
251.59112515527801
  0
LINE
  8
_0-e_
  6
CONTINUOUS
 62
    7
 10
384.21956728022826
 20
250.98112515527788
 11
383.22956728022848
 21
251.00112515527786
  0
LINE
  8
_0-e_
  6
CONTINUOUS
 62
    7
 10
384.21956728022826
 20
249.98112515527788
 11
383.22956728022848
 21
249.9611251552779
  0
LINE
  8
_0-e_
  6
CONTINUOUS
 62
    7
 10
382.63956728022833
 20
249.37112515527775
 11
382.61956728022835
 21
248.381125155278
  0
LINE
  8
_0-e_
  6
CONTINUOUS
 62
    7
 10
381.59956728022837
 20
249.37112515527775
 11
381.61956728022835
 21
248.381125155278
  0
LINE
  8
_0-e_
  6
CONTINUOUS
 62
    7
 10
380.01956728022844
 20
249.98112515527788
 11
381.00956728022823
 21
249.9611251552779
  0
LINE
  8
_0-e_
  6
CONTINUOUS
 62
    7
 10
380.01956728022844
 20
250.98112515527788
 11
381.00956728022823
 21
251.00112515527786
  0
LINE
  8
_0-e_
  6
CONTINUOUS
 62
    7
 10
381.40956728022832
 20
249.77112515527784
 11
381.59956728022837
 21
249.37112515527775
  0
LINE
  8
_0-e_
  6
CONTINUOUS
 62
    7
 10
381.40956728022832
 20
249.77112515527784
 11
381.00956728022823
 21
249.9611251552779
  0
LINE
  8
_0-e_
  6
CONTINUOUS
 62
    7
 10
382.82956728022839
 20
249.77112515527784
 11
383.22956728022848
 21
249.9611251552779
  0
LINE
  8
_0-e_
  6
CONTINUOUS
 62
    7
 10
382.82956728022839
 20
249.77112515527784
 11
382.63956728022833
 21
249.37112515527775
  0
LINE
  8
_0-e_
  6
CONTINUOUS
 62
    7
 10
382.82956728022839
 20
251.19112515527792
 11
383.22956728022848
 21
251.00112515527786
  0
LINE
  8
_0-e_
  6
CONTINUOUS
 62
    7
 10
382.82956728022839
 20
251.19112515527792
 11
382.63956728022833
 21
251.59112515527801
  0
LINE
  8
_0-e_
  6
CONTINUOUS
 62
    7
 10
381.40956728022832
 20
251.19112515527792
 11
381.00956728022823
 21
251.00112515527786
  0
LINE
  8
_0-e_
  6
CONTINUOUS
 62
    7
 10
381.40956728022832
 20
251.19112515527792
 11
381.59956728022837
 21
251.59112515527801
  0
CIRCLE
  8
_0-6_寸法
  6
CONTINUOUS
 62
    7
 10
343.47816158737157
 20
148.40828139201165
 40
4.7000000000000028
  0
LINE
  8
_0-e_
  6
CONTINUOUS
 62
    7
 10
341.37816158737166
 20
147.90828139201165
 11
341.37816158737166
 21
148.90828139201165
  0
LINE
  8
_0-e_
  6
CONTINUOUS
 62
    7
 10
345.57816158737148
 20
147.90828139201165
 11
345.57816158737148
 21
148.90828139201165
  0
LINE
  8
_0-e_
  6
CONTINUOUS
 62
    7
 10
342.97816158737157
 20
146.30828139201176
 11
343.97816158737157
 21
146.30828139201176
  0
LINE
  8
_0-e_
  6
CONTINUOUS
 62
    7
 10
342.97816158737157
 20
150.50828139201155
 11
343.97816158737157
 21
150.50828139201155
  0
LINE
  8
_0-e_
  6
CONTINUOUS
 62
    7
 10
342.97816158737157
 20
150.50828139201155
 11
342.95816158737159
 21
149.51828139201177
  0
LINE
  8
_0-e_
  6
CONTINUOUS
 62
    7
 10
343.97816158737157
 20
150.50828139201155
 11
343.99816158737156
 21
149.51828139201177
  0
LINE
  8
_0-e_
  6
CONTINUOUS
 62
    7
 10
345.57816158737148
 20
148.90828139201165
 11
344.5881615873717
 21
148.92828139201163
  0
LINE
  8
_0-e_
  6
CONTINUOUS
 62
    7
 10
345.57816158737148
 20
147.90828139201165
 11
344.5881615873717
 21
147.88828139201166
  0
LINE
  8
_0-e_
  6
CONTINUOUS
 62
    7
 10
343.99816158737156
 20
147.29828139201152
 11
343.97816158737157
 21
146.30828139201176
  0
LINE
  8
_0-e_
  6
CONTINUOUS
 62
    7
 10
342.95816158737159
 20
147.29828139201152
 11
342.97816158737157
 21
146.30828139201176
  0
LINE
  8
_0-e_
  6
CONTINUOUS
 62
    7
 10
341.37816158737166
 20
147.90828139201165
 11
342.36816158737145
 21
147.88828139201166
  0
LINE
  8
_0-e_
  6
CONTINUOUS
 62
    7
 10
341.37816158737166
 20
148.90828139201165
 11
342.36816158737145
 21
148.92828139201163
  0
LINE
  8
_0-e_
  6
CONTINUOUS
 62
    7
 10
342.76816158737154
 20
147.69828139201161
 11
342.95816158737159
 21
147.29828139201152
  0
LINE
  8
_0-e_
  6
CONTINUOUS
 62
    7
 10
342.76816158737154
 20
147.69828139201161
 11
342.36816158737145
 21
147.88828139201166
  0
LINE
  8
_0-e_
  6
CONTINUOUS
 62
    7
 10
344.18816158737161
 20
147.69828139201161
 11
344.5881615873717
 21
147.88828139201166
  0
LINE
  8
_0-e_
  6
CONTINUOUS
 62
    7
 10
344.18816158737161
 20
147.69828139201161
 11
343.99816158737156
 21
147.29828139201152
  0
LINE
  8
_0-e_
  6
CONTINUOUS
 62
    7
 10
344.18816158737161
 20
149.11828139201168
 11
344.5881615873717
 21
148.92828139201163
  0
LINE
  8
_0-e_
  6
CONTINUOUS
 62
    7
 10
344.18816158737161
 20
149.11828139201168
 11
343.99816158737156
 21
149.51828139201177
  0
LINE
  8
_0-e_
  6
CONTINUOUS
 62
    7
 10
342.76816158737154
 20
149.11828139201168
 11
342.36816158737145
 21
148.92828139201163
  0
LINE
  8
_0-e_
  6
CONTINUOUS
 62
    7
 10
342.76816158737154
 20
149.11828139201168
 11
342.95816158737159
 21
149.51828139201177
  0
LINE
  8
_0-e_
  6
CONTINUOUS
 62
    7
 10
338.59882521227922
 20
143.36400692595339
 11
341.26231424605743
 21
140.70051789217518
  0
LINE
  8
_0-e_
  6
CONTINUOUS
 62
    7
 10
338.58178307861073
 20
146.20947618436853
 11
343.4528245936512
 21
141.33843466932808
  0
LINE
  8
_0-e_
  6
CONTINUOUS
 62
    7
 10
338.58179968701091
 20
149.03788670071503
 11
344.88031719747556
 21
142.73936919025039
  0
LINE
  8
_0-e_
  6
CONTINUOUS
 62
    7
 10
338.58181629541127
 20
151.8662972170595
 11
346.29453075984799
 21
144.15358275262281
  0
LINE
  8
_0-e_
  6
CONTINUOUS
 62
    7
 10
338.58183290381072
 20
154.69470773340672
 11
347.70874432222132
 21
145.56779631499614
  0
LINE
  8
_0-e_
  6
CONTINUOUS
 62
    7
 10
338.58184951221085
 20
157.52311824975325
 11
349.12295788459465
 21
146.98200987736948
  0
LINE
  8
_0-e_
  6
CONTINUOUS
 62
    7
 10
338.58186612061093
 20
160.35152876609988
 11
350.53717144696799
 21
148.39622343974281
  0
LINE
  8
_0-e_
  6
CONTINUOUS
 62
    7
 10
338.581882729011
 20
163.17993928244462
 11
351.95138500934041
 21
149.81043700211524
  0
LINE
  8
_0-e_
  6
CONTINUOUS
 62
    7
 10
338.58189933741102
 20
166.0083497987913
 11
353.36559857171375
 21
151.22465056448857
  0
LINE
  8
_0-e_
  6
CONTINUOUS
 62
    7
 10
338.58191594581098
 20
168.83676031513798
 11
354.77981213408702
 21
152.6388641268619
  0
LINE
  8
_0-e_
  6
CONTINUOUS
 62
    7
 10
338.58193255421088
 20
171.66517083148472
 11
356.19402569646041
 21
154.05307768923524
  0
LINE
  8
_0-e_
  6
CONTINUOUS
 62
    7
 10
338.58194916261112
 20
174.49358134782935
 11
357.60823925883284
 21
155.46729125160766
  0
LINE
  8
_0-e_
  6
CONTINUOUS
 62
    7
 10
338.58196577101126
 20
177.32199186417586
 11
359.02245282120617
 21
156.881504813981
  0
LINE
  8
_0-e_
  6
CONTINUOUS
 62
    7
 10
338.5819823794111
 20
180.15040238052268
 11
360.43666638357951
 21
158.29571837635433
  0
LINE
  8
_0-e_
  6
CONTINUOUS
 62
    7
 10
338.58199898781106
 20
182.97881289686762
 11
361.85087994595193
 21
159.70993193872675
  0
LINE
  8
_0-e_
  6
CONTINUOUS
 62
    7
 10
338.77561028238017
 20
185.61362872704518
 11
342.58183303153868
 21
181.80740597788665
  0
LINE
  8
_0-e_
  6
CONTINUOUS
 62
    7
 10
342.75595998875161
 20
181.63327902067374
 11
363.26509350832526
 21
161.12414550110009
  0
LINE
  8
_0-e_
  6
CONTINUOUS
 62
    7
 10
341.58434294642802
 20
185.63332318774397
 11
342.58183303153908
 21
184.63583310263294
  0
LINE
  8
_0-e_
  6
CONTINUOUS
 62
    7
 10
345.58443711397729
 20
181.63322902019473
 11
364.6793070706986
 21
162.53835906347342
  0
LINE
  8
_0-e_
  6
CONTINUOUS
 62
    7
 10
348.41291423920296
 20
181.63317901971573
 11
366.09352063307188
 21
163.95257262584676
  0
LINE
  8
_0-e_
  6
CONTINUOUS
 62
    7
 10
350.58189773252684
 20
182.29262265113664
 11
367.5077341954443
 21
165.36678618821918
  0
LINE
  8
_0-e_
  6
CONTINUOUS
 62
    7
 10
338.58208202981069
 20
197.12086547859946
 11
339.56962529106215
 21
196.133322217348
  0
LINE
  8
_0-e_
  6
CONTINUOUS
 62
    7
 10
350.58189773252707
 20
185.12104977588311
 11
368.92194775781763
 21
166.78099975059251
  0
LINE
  8
_0-e_
  6
CONTINUOUS
 62
    7
 10
338.58209863821094
 20
199.94927599494594
 11
342.38114796660739
 21
196.15022666654943
  0
LINE
  8
_0-e_
  6
CONTINUOUS
 62
    7
 10
350.5818977325273
 20
187.94947690062955
 11
370.33616132019097
 21
168.19521331296585
  0
LINE
  8
_0-e_
  6
CONTINUOUS
 62
    7
 10
338.58211524661095
 20
202.77768651129259
 11
342.58192264752643
 21
198.77787911037711
  0
LINE
  8
_0-e_
  6
CONTINUOUS
 62
    7
 10
350.58189773252724
 20
190.77790402537627
 11
371.7503748825643
 21
169.60942687533918
  0
LINE
  8
_0-e_
  6
CONTINUOUS
 62
    7
 10
338.58213185501097
 20
205.60609702763739
 11
344.05497798331163
 21
200.13325089933676
  0
LINE
  8
_0-e_
  6
CONTINUOUS
 62
    7
 10
350.58189773252718
 20
193.60633115012121
 11
373.16458844493673
 21
171.02364043771161
  0
LINE
  8
_0-e_
  6
CONTINUOUS
 62
    7
 10
338.58214846341065
 20
208.43450754398438
 11
346.8834051080587
 21
200.13325089933633
  0
LINE
  8
_0-e_
  6
CONTINUOUS
 62
    7
 10
350.58189773252707
 20
196.43475827486799
 11
374.57880200731006
 21
172.43785400008494
  0
LINE
  8
_0-e_
  6
CONTINUOUS
 62
    7
 10
338.58216507181089
 20
211.2629180603308
 11
349.71183223280531
 21
200.13325089933639
  0
LINE
  8
_0-e_
  6
CONTINUOUS
 62
    7
 10
350.5818977325273
 20
199.26318539961443
 11
375.99301556968339
 21
173.85206756245827
  0
LINE
  8
_0-e_
  6
CONTINUOUS
 62
    7
 10
338.62623900182712
 20
214.04727125506128
 11
342.09584167707078
 21
210.57766857981761
  0
LINE
  8
_0-e_
  6
CONTINUOUS
 62
    7
 10
345.75164461069915
 20
206.92186564618925
 11
377.40722913205673
 21
175.26628112483161
  0
LINE
  8
_0-e_
  6
CONTINUOUS
 62
    7
 10
340.03465584735926
 20
215.46728153427395
 11
342.60919196579641
 21
212.89274541583683
  0
LINE
  8
_0-e_
  6
CONTINUOUS
 62
    7
 10
348.06672144671836
 20
207.43521593491488
 11
378.82144269442915
 21
176.68049468720403
  0
LINE
  8
_0-e_
  6
CONTINUOUS
 62
    7
 10
341.44886940973259
 20
216.88149509664728
 11
344.00424555256075
 21
214.32611895381916
  0
LINE
  8
_0-e_
  6
CONTINUOUS
 62
    7
 10
349.5000949847007
 20
208.83026952167921
 11
380.23565625680249
 21
178.09470824957737
  0
LINE
  8
_0-e_
  6
CONTINUOUS
 62
    7
 10
342.86308297210593
 20
218.29570865902062
 11
346.25431074621099
 21
214.90448088491559
  0
LINE
  8
_0-e_
  6
CONTINUOUS
 62
    7
 10
358.41943215820982
 20
233.85205784512465
 11
397.20621900527976
 21
195.06527099805464
  0
LINE
  8
_0-e_
  6
CONTINUOUS
 62
    7
 10
359.83364572058315
 20
235.26627140749798
 11
398.6204325676531
 21
196.47948456042798
  0
LINE
  8
_0-e_
  6
CONTINUOUS
 62
    7
 10
361.24785928295557
 20
236.68048496987041
 11
400.03464613002552
 21
197.8936981228004
  0
LINE
  8
_0-e_
  6
CONTINUOUS
 62
    7
 10
362.66207284532891
 20
238.09469853224374
 11
401.44885969239886
 21
199.30791168517374
  0
LINE
  8
_0-e_
  6
CONTINUOUS
 62
    7
 10
364.07628640770224
 20
239.50891209461707
 11
402.86307325477219
 21
200.72212524754707
  0
LINE
  8
_0-e_
  6
CONTINUOUS
 62
    7
 10
365.49049997007552
 20
240.92312565699041
 11
404.27728681714552
 21
202.1363388099204
  0
LINE
  8
_0-e_
  6
CONTINUOUS
 62
    7
 10
366.90471353244794
 20
242.33733921936286
 11
405.69150037951795
 21
203.55055237229283
  0
LINE
  8
_0-e_
  6
CONTINUOUS
 62
    7
 10
368.31892709482128
 20
243.75155278173619
 11
407.10571394189128
 21
204.96476593466616
  0
LINE
  8
_0-e_
  6
CONTINUOUS
 62
    7
 10
369.73314065719461
 20
245.16576634410953
 11
408.51992750426461
 21
206.37897949703952
  0
LINE
  8
_0-e_
  6
CONTINUOUS
 62
    7
 10
371.14735421956794
 20
246.57997990648289
 11
409.93414106663795
 21
207.79319305941283
  0
LINE
  8
_0-e_
  6
CONTINUOUS
 62
    7
 10
372.56156778194031
 20
247.99419346885531
 11
411.34835462901037
 21
209.20740662178525
  0
LINE
  8
_0-e_
  6
CONTINUOUS
 62
    7
 10
373.97578134431365
 20
249.40840703122865
 11
412.76256819138371
 21
210.62162018415859
  0
LINE
  8
_0-e_
  6
CONTINUOUS
 62
    7
 10
375.38999490668698
 20
250.82262059360198
 11
414.17678175375704
 21
212.03583374653192
  0
LINE
  8
_0-e_
  6
CONTINUOUS
 62
    7
 10
376.8042084690594
 20
252.23683415597441
 11
390.20823676742322
 21
238.83280585761062
  0
LINE
  8
_0-e_
  6
CONTINUOUS
 62
    7
 10
398.75551923002286
 20
230.28552339501101
 11
415.59099531612947
 21
213.45004730890437
  0
LINE
  8
_0-e_
  6
CONTINUOUS
 62
    7
 10
378.21842203143274
 20
253.65104771834777
 11
388.27015460796514
 21
243.59931514181537
  0
LINE
  8
_0-e_
  6
CONTINUOUS
 62
    7
 10
403.5220285142276
 20
228.34744123555294
 11
417.0052088785028
 21
214.86426087127771
  0
LINE
  8
_0-e_
  6
CONTINUOUS
 62
    7
 10
379.63263559380607
 20
255.0652612807211
 11
387.61258273868157
 21
247.08531413584561
  0
LINE
  8
_0-e_
  6
CONTINUOUS
 62
    7
 10
407.00802750825778
 20
227.68986936626936
 11
418.41942244087613
 21
216.27847443365104
  0
LINE
  8
_0-e_
  6
CONTINUOUS
 62
    7
 10
381.04684915617941
 20
256.47947484309441
 11
387.50236539462071
 21
250.0239586046531
  0
LINE
  8
_0-e_
  6
CONTINUOUS
 62
    7
 10
382.46106271855183
 20
257.89368840546689
 11
387.73600555079349
 21
252.61874557322517
  0
LINE
  8
_0-e_
  6
CONTINUOUS
 62
    7
 10
383.87527628092516
 20
259.30790196784022
 11
388.22183428265532
 21
254.96134396611001
  0
LINE
  8
_0-e_
  6
CONTINUOUS
 62
    7
 10
350.07845691579757
 20
211.080334715329
 11
363.4067560954353
 21
197.75203553569122
  0
LINE
  8
_0-e_
  6
CONTINUOUS
 62
    7
 10
365.7002506418371
 20
195.45854098928947
 11
381.64986981917582
 21
179.5089218119507
  0
LINE
  8
_0-e_
  6
CONTINUOUS
 62
    7
 10
344.27729653447926
 20
219.70992222139395
 11
363.4067560954353
 21
200.58046266043789
  0
LINE
  8
_0-e_
  6
CONTINUOUS
 62
    7
 10
368.52867776658377
 20
195.45854098928947
 11
383.06408338154915
 21
180.92313537432403
  0
LINE
  8
_0-e_
  6
CONTINUOUS
 62
    7
 10
345.69151009685169
 20
221.12413578376641
 11
363.4067560954353
 21
203.40888978518274
  0
LINE
  8
_0-e_
  6
CONTINUOUS
 62
    7
 10
371.35710489132862
 20
195.45854098928947
 11
384.47829694392158
 21
182.33734893669646
  0
LINE
  8
_0-e_
  6
CONTINUOUS
 62
    7
 10
347.10572365922496
 20
222.53834934613974
 11
364.75934570361835
 21
204.88472730174638
  0
LINE
  8
_0-e_
  6
CONTINUOUS
 62
    7
 10
374.18553201607529
 20
195.45854098928947
 11
385.89251050629491
 21
183.75156249906979
  0
LINE
  8
_0-e_
  6
CONTINUOUS
 62
    7
 10
348.5199372215983
 20
223.95256290851307
 11
367.58777282836502
 21
204.88472730174638
  0
LINE
  8
_0-e_
  6
CONTINUOUS
 62
    7
 10
377.01395914082195
 20
195.45854098928947
 11
387.30672406866825
 21
185.16577606144313
  0
LINE
  8
_0-e_
  6
CONTINUOUS
 62
    7
 10
349.93415078397072
 20
225.3667764708855
 11
370.41619995310987
 21
204.88472730174638
  0
LINE
  8
_0-e_
  6
CONTINUOUS
 62
    7
 10
379.8423862655668
 20
195.45854098928947
 11
388.72093763104067
 21
186.57998962381555
  0
LINE
  8
_0-e_
  6
CONTINUOUS
 62
    7
 10
351.34836434634406
 20
226.78099003325883
 11
373.24462707785653
 21
204.88472730174638
  0
LINE
  8
_0-e_
  6
CONTINUOUS
 62
    7
 10
382.67081339031347
 20
195.45854098928947
 11
390.135151193414
 21
187.99420318618888
  0
LINE
  8
_0-e_
  6
CONTINUOUS
 62
    7
 10
352.76257790871739
 20
228.19520359563219
 11
376.0730542026032
 21
204.88472730174638
  0
LINE
  8
_0-e_
  6
CONTINUOUS
 62
    7
 10
384.97387037833676
 20
195.98391112601286
 11
391.54936475578734
 21
189.40841674856222
  0
LINE
  8
_0-e_
  6
CONTINUOUS
 62
    7
 10
354.17679147109072
 20
229.60941715800553
 11
378.90148132734987
 21
204.88472730174638
  0
LINE
  8
_0-e_
  6
CONTINUOUS
 62
    7
 10
384.97387037833676
 20
198.81233825075952
 11
392.96357831816067
 21
190.82263031093555
  0
LINE
  8
_0-e_
  6
CONTINUOUS
 62
    7
 10
355.59100503346315
 20
231.02363072037795
 11
381.72990845209472
 21
204.88472730174638
  0
LINE
  8
_0-e_
  6
CONTINUOUS
 62
    7
 10
384.97387037833676
 20
201.64076537550437
 11
394.3777918805331
 21
192.23684387330798
  0
LINE
  8
_0-e_
  6
CONTINUOUS
 62
    7
 10
357.00521859583648
 20
232.43784428275129
 11
384.55833557684139
 21
204.88472730174638
  0
LINE
  8
_0-e_
  6
CONTINUOUS
 62
    7
 10
384.97387037833676
 20
204.46919250025104
 11
395.79200544290643
 21
193.65105743568131
  0
LINE
  8
_0-7_文字
  6
CONTINUOUS
 62
    7
 10
323.940424519065
 20
197.71183659850098
 11
345.32015179353226
 21
210.05542789561545
  0
LINE
  8
_0-2_製品
  6
CONTINUOUS
 62
   83
 10
451.69196592425851
 20
329.93337550101256
 11
451.67895515948476
 21
330.58023678444204
  0
LINE
  8
_0-2_製品
  6
CONTINUOUS
 62
   83
 10
451.67895515948476
 20
330.58023678444204
 11
451.66354023165491
 21
331.22469390481547
  0
LINE
  8
_0-2_製品
  6
CONTINUOUS
 62
   83
 10
451.66354023165491
 20
331.22469390481547
 11
451.64529687670029
 21
331.86660544077665
  0
LINE
  8
_0-2_製品
  6
CONTINUOUS
 62
   83
 10
451.64529687670029
 20
331.86660544077665
 11
451.62450793733342
 21
332.50568854961301
  0
LINE
  8
_0-2_製品
  6
CONTINUOUS
 62
   83
 10
451.62450793733342
 20
332.50568854961301
 11
451.60131483491045
 21
333.14236749539333
  0
LINE
  8
_0-2_製品
  6
CONTINUOUS
 62
   83
 10
451.60131483491045
 20
333.14236749539333
 11
451.57543472671898
 21
333.77664227811766
  0
LINE
  8
_0-2_製品
  6
CONTINUOUS
 62
   83
 10
451.57543472671898
 20
333.77664227811766
 11
451.54700903411526
 21
334.40808863371728
  0
LINE
  8
_0-2_製品
  6
CONTINUOUS
 62
   83
 10
451.54700903411526
 20
334.40808863371728
 11
451.51603775709941
 21
335.03698940490466
  0
LINE
  8
_0-2_製品
  6
CONTINUOUS
 62
   83
 10
451.51603775709941
 20
335.03698940490466
 11
451.48252089567109
 21
335.66362743439214
  0
LINE
  8
_0-2_製品
  6
CONTINUOUS
 62
   83
 10
451.48252089567109
 20
335.66362743439214
 11
451.44645844983063
 21
336.28743703675497
  0
LINE
  8
_0-2_製品
  6
CONTINUOUS
 62
   83
 10
451.44645844983063
 20
336.28743703675497
 11
451.40770899822155
 21
336.90855963334911
  0
LINE
  8
_0-2_製品
  6
CONTINUOUS
 62
   83
 10
451.40770899822155
 20
336.90855963334911
 11
451.36641396220023
 21
337.52741948824359
  0
LINE
  8
_0-2_製品
  6
CONTINUOUS
 62
   83
 10
451.36641396220023
 20
337.52741948824359
 11
451.32271476312292
 21
338.14359233736957
  0
LINE
  8
_0-2_製品
  6
CONTINUOUS
 62
   83
 10
451.32271476312292
 20
338.14359233736957
 11
451.2763285582771
 21
338.75707818072704
  0
LINE
  8
_0-2_製品
  6
CONTINUOUS
 62
   83
 10
451.2763285582771
 20
338.75707818072704
 11
451.22725534766278
 21
339.36815986102846
  0
LINE
  8
_0-2_製品
  6
CONTINUOUS
 62
   83
 10
451.22725534766278
 20
339.36815986102846
 11
451.17577797399235
 21
339.97655453556132
  0
LINE
  8
_0-2_製品
  6
CONTINUOUS
 62
   83
 10
451.17577797399235
 20
339.97655453556132
 11
451.12175501590968
 21
340.58240362568199
  0
LINE
  8
_0-2_製品
  6
CONTINUOUS
 62
   83
 10
451.12175501590968
 20
340.58240362568199
 11
451.06504505205862
 21
341.18584855274662
  0
LINE
  8
_0-2_製品
  6
CONTINUOUS
 62
   83
 10
451.06504505205862
 20
341.18584855274662
 11
451.00593092515146
 21
341.78660647404274
  0
LINE
  8
_0-2_製品
  6
CONTINUOUS
 62
   83
 10
451.00593092515146
 20
341.78660647404274
 11
450.94412979247568
 21
342.38467738957024
  0
LINE
  8
_0-2_製品
  6
CONTINUOUS
 62
   83
 10
450.94412979247568
 20
342.38467738957024
 11
450.87978307538765
 21
342.98048556339802
  0
LINE
  8
_0-2_製品
  6
CONTINUOUS
 62
   83
 10
450.87978307538765
 20
342.98048556339802
 11
450.81289077388749
 21
343.57346531010108
  0
LINE
  8
_0-2_製品
  6
CONTINUOUS
 62
   83
 10
450.81289077388749
 20
343.57346531010108
 11
450.74345288797485
 21
344.16389947239185
  0
LINE
  8
_0-2_製品
  6
CONTINUOUS
 62
   83
 10
450.74345288797485
 20
344.16389947239185
 11
450.67132799629383
 21
344.75192947162651
  0
LINE
  8
_0-2_製品
  6
CONTINUOUS
 62
   83
 10
450.67132799629383
 20
344.75192947162651
 11
450.59665752020067
 21
345.33713104373658
  0
LINE
  8
_0-2_製品
  6
CONTINUOUS
 62
   83
 10
450.59665752020067
 20
345.33713104373658
 11
450.51958288105129
 21
345.9199284527906
  0
LINE
  8
_0-2_製品
  6
CONTINUOUS
 62
   83
 10
450.51958288105129
 20
345.9199284527906
 11
450.43967981477715
 21
346.50018027743215
  0
LINE
  8
_0-2_製品
  6
CONTINUOUS
 62
   83
 10
450.43967981477715
 20
346.50018027743215
 11
450.35751400680329
 21
347.07788651766157
  0
LINE
  8
_0-2_製品
  6
CONTINUOUS
 62
   83
 10
450.35751400680329
 20
347.07788651766157
 11
450.27266119306091
 21
347.65290575212254
  0
LINE
  8
_0-2_製品
  6
CONTINUOUS
 62
   83
 10
450.27266119306091
 20
347.65290575212254
 11
450.18512137355003
 21
348.2255208235274
  0
LINE
  8
_0-2_製品
  6
CONTINUOUS
 62
   83
 10
450.18512137355003
 20
348.2255208235274
 11
450.09517739098305
 21
348.79544888916371
  0
LINE
  8
_0-2_製品
  6
CONTINUOUS
 62
   83
 10
450.09517739098305
 20
348.79544888916371
 11
450.00268782400394
 21
349.36283137038788
  0
LINE
  8
_0-2_製品
  6
CONTINUOUS
 62
   83
 10
450.00268782400394
 20
349.36283137038788
 11
449.90736982989984
 21
349.92766826719958
  0
LINE
  8
_0-2_製品
  6
CONTINUOUS
 62
   83
 10
449.90736982989984
 20
349.92766826719958
 11
449.80978909409623
 21
350.48995957959914
  0
LINE
  8
_0-2_製品
  6
CONTINUOUS
 62
   83
 10
449.80978909409623
 20
350.48995957959914
 11
449.70952135252401
 21
351.04956388623026
  0
LINE
  8
_0-2_製品
  6
CONTINUOUS
 62
   83
 10
449.70952135252401
 20
351.04956388623026
 11
449.60656660518316
 21
351.60676402980516
  0
LINE
  8
_0-2_製品
  6
CONTINUOUS
 62
   83
 10
449.60656660518316
 20
351.60676402980516
 11
449.50120769478644
 21
352.16127716761173
  0
LINE
  8
_0-2_製品
  6
CONTINUOUS
 62
   83
 10
449.50120769478644
 20
352.16127716761173
 11
449.39330319997725
 21
352.71324472100594
  0
LINE
  8
_0-2_製品
  6
CONTINUOUS
 62
   83
 10
449.39330319997725
 20
352.71324472100594
 11
449.28257027804352
 21
353.26266668998784
  0
LINE
  8
_0-2_製品
  6
CONTINUOUS
 62
   83
 10
449.28257027804352
 20
353.26266668998784
 11
449.16957461440995
 21
353.80954307455755
  0
LINE
  8
_0-2_製品
  6
CONTINUOUS
 62
   83
 10
449.16957461440995
 20
353.80954307455755
 11
449.05389194500776
 21
354.35373245335865
  0
LINE
  8
_0-2_製品
  6
CONTINUOUS
 62
   83
 10
449.05389194500776
 20
354.35373245335865
 11
448.93566369119344
 21
354.89565909046007
  0
LINE
  8
_0-2_製品
  6
CONTINUOUS
 62
   83
 10
448.93566369119344
 20
354.89565909046007
 11
448.81488985296676
 21
355.43475730043667
  0
LINE
  8
_0-2_製品
  6
CONTINUOUS
 62
   83
 10
448.81488985296676
 20
355.43475730043667
 11
448.69157043032783
 21
355.97130992600103
  0
LINE
  8
_0-2_製品
  6
CONTINUOUS
 62
   83
 10
448.69157043032783
 20
355.97130992600103
 11
448.56542258056413
 21
356.50531696715314
  0
LINE
  8
_0-2_製品
  6
CONTINUOUS
 62
   83
 10
448.56542258056413
 20
356.50531696715314
 11
448.4370119891006
 21
357.03677842389288
  0
LINE
  8
_0-2_製品
  6
CONTINUOUS
 62
   83
 10
448.4370119891006
 20
357.03677842389288
 11
448.30591439186867
 21
357.5655528748643
  0
LINE
  8
_0-2_製品
  6
CONTINUOUS
 62
   83
 10
448.30591439186867
 20
357.5655528748643
 11
448.17227121022438
 21
358.0920645841357
  0
LINE
  8
_0-2_製品
  6
CONTINUOUS
 62
   83
 10
448.17227121022438
 20
358.0920645841357
 11
448.03608244416785
 21
358.6157478662825
  0
LINE
  8
_0-2_製品
  6
CONTINUOUS
 62
   83
 10
448.03608244416785
 20
358.6157478662825
 11
447.89734809369907
 21
359.13688556401701
  0
LINE
  8
_0-2_製品
  6
CONTINUOUS
 62
   83
 10
447.89734809369907
 20
359.13688556401701
 11
447.75592673746178
 21
359.65561909869541
  0
LINE
  8
_0-2_製品
  6
CONTINUOUS
 62
   83
 10
447.75592673746178
 20
359.65561909869541
 11
447.61210121816839
 21
360.17166562760542
  0
LINE
  8
_0-2_製品
  6
CONTINUOUS
 62
   83
 10
447.61210121816839
 20
360.17166562760542
 11
447.46558869310661
 21
360.68502515074681
  0
LINE
  8
_0-2_製品
  6
CONTINUOUS
 62
   83
 10
447.46558869310661
 20
360.68502515074681
 11
447.31653058363247
 21
361.19612193218848
  0
LINE
  8
_0-2_製品
  6
CONTINUOUS
 62
   83
 10
447.31653058363247
 20
361.19612193218848
 11
447.16492688974608
 21
361.70439028650537
  0
LINE
  8
_0-2_製品
  6
CONTINUOUS
 62
   83
 10
447.16492688974608
 20
361.70439028650537
 11
447.01077761144734
 21
362.21011305641002
  0
LINE
  8
_0-2_製品
  6
CONTINUOUS
 62
   83
 10
447.01077761144734
 20
362.21011305641002
 11
446.8539413273802
 21
362.71343166325858
  0
LINE
  8
_0-2_製品
  6
CONTINUOUS
 62
   83
 10
446.8539413273802
 20
362.71343166325858
 11
446.69470088025707
 21
363.21406326433862
  0
LINE
  8
_0-2_製品
  6
CONTINUOUS
 62
   83
 10
446.69470088025707
 20
363.21406326433862
 11
446.53291484872159
 21
363.71214928100642
  0
LINE
  8
_0-2_製品
  6
CONTINUOUS
 62
   83
 10
446.53291484872159
 20
363.71214928100642
 11
446.36830039006122
 21
364.20768971326191
  0
LINE
  8
_0-2_製品
  6
CONTINUOUS
 62
   83
 10
446.36830039006122
 20
364.20768971326191
 11
446.20142318970125
 21
364.70068456110528
  0
LINE
  8
_0-2_製品
  6
CONTINUOUS
 62
   83
 10
446.20142318970125
 20
364.70068456110528
 11
446.03185898357265
 21
365.19099240317996
  0
LINE
  8
_0-2_製品
  6
CONTINUOUS
 62
   83
 10
446.03185898357265
 20
365.19099240317996
 11
445.85960777167577
 21
365.67889608219878
  0
LINE
  8
_0-2_製品
  6
CONTINUOUS
 62
   83
 10
445.85960777167577
 20
365.67889608219878
 11
445.68495239672257
 21
366.16411275544891
  0
LINE
  8
_0-2_製品
  6
CONTINUOUS
 62
   83
 10
445.68495239672257
 20
366.16411275544891
 11
445.50775143735723
 21
366.6467838442868
  0
LINE
  8
_0-2_製品
  6
CONTINUOUS
 62
   83
 10
445.50775143735723
 20
366.6467838442868
 11
445.32786347222338
 21
367.12705077006876
  0
LINE
  8
_0-2_製品
  6
CONTINUOUS
 62
   83
 10
445.32786347222338
 20
367.12705077006876
 11
445.14542992267718
 21
367.60448926872584
  0
LINE
  8
_0-2_製品
  6
CONTINUOUS
 62
   83
 10
445.14542992267718
 20
367.60448926872584
 11
444.96045078871896
 21
368.07938218297079
  0
LINE
  8
_0-2_製品
  6
CONTINUOUS
 62
   83
 10
444.96045078871896
 20
368.07938218297079
 11
444.77292607034815
 21
368.55201235551584
  0
LINE
  8
_0-2_製品
  6
CONTINUOUS
 62
   83
 10
444.77292607034815
 20
368.55201235551584
 11
444.58285576756521
 21
369.02181410093618
  0
LINE
  8
_0-2_製品
  6
CONTINUOUS
 62
   83
 10
444.58285576756521
 20
369.02181410093618
 11
444.39023988037002
 21
369.48907026194433
  0
LINE
  8
_0-2_製品
  6
CONTINUOUS
 62
   83
 10
444.39023988037002
 20
369.48907026194433
 11
444.19493698740632
 21
369.95392225989633
  0
LINE
  8
_0-2_製品
  6
CONTINUOUS
 62
   83
 10
444.19493698740632
 20
369.95392225989633
 11
443.99708851003027
 21
370.41594583072356
  0
LINE
  8
_0-2_製品
  6
CONTINUOUS
 62
   83
 10
443.99708851003027
 20
370.41594583072356
 11
443.79683586959823
 21
370.87556523849486
  0
LINE
  8
_0-2_製品
  6
CONTINUOUS
 62
   83
 10
443.79683586959823
 20
370.87556523849486
 11
443.59375480204142
 21
371.3326390618538
  0
LINE
  8
_0-2_製品
  6
CONTINUOUS
 62
   83
 10
443.59375480204142
 20
371.3326390618538
 11
443.38826957142874
 21
371.7870258794444
  0
LINE
  8
_0-2_製品
  6
CONTINUOUS
 62
   83
 10
443.38826957142874
 20
371.7870258794444
 11
443.18023875640358
 21
372.23886711262253
  0
LINE
  8
_0-2_製品
  6
CONTINUOUS
 62
   83
 10
443.18023875640358
 20
372.23886711262253
 11
442.96952093560992
 21
372.68830418274467
  0
LINE
  8
_0-2_製品
  6
CONTINUOUS
 62
   83
 10
442.96952093560992
 20
372.68830418274467
 11
442.7563989517605
 21
373.13505424709842
  0
LINE
  8
_0-2_製品
  6
CONTINUOUS
 62
   83
 10
442.7563989517605
 20
373.13505424709842
 11
442.54058996214223
 21
373.57911730568355
  0
LINE
  8
_0-2_製品
  6
CONTINUOUS
 62
   83
 10
442.54058996214223
 20
373.57911730568355
 11
442.32223538811184
 21
374.02091762256879
  0
LINE
  8
_0-2_製品
  6
CONTINUOUS
 62
   83
 10
442.32223538811184
 20
374.02091762256879
 11
442.10133522966919
 21
374.45988951232948
  0
LINE
  8
_0-2_製品
  6
CONTINUOUS
 62
   83
 10
442.10133522966919
 20
374.45988951232948
 11
441.8778894868143
 21
374.89631581767782
  0
LINE
  8
_0-2_製品
  6
CONTINUOUS
 62
   83
 10
441.8778894868143
 20
374.89631581767782
 11
441.65175673819078
 21
375.33033795997011
  0
LINE
  8
_0-2_製品
  6
CONTINUOUS
 62
   83
 10
441.65175673819078
 20
375.33033795997011
 11
441.42321982651129
 21
375.76167309649389
  0
LINE
  8
_0-2_製品
  6
CONTINUOUS
 62
   83
 10
441.42321982651129
 20
375.76167309649389
 11
441.19213733041954
 21
376.19046264860549
  0
LINE
  8
_0-2_製品
  6
CONTINUOUS
 62
   83
 10
441.19213733041954
 20
376.19046264860549
 11
440.95822640720303
 21
376.61670661630467
  0
LINE
  8
_0-2_製品
  6
CONTINUOUS
 62
   83
 10
440.95822640720303
 20
376.61670661630467
 11
440.72205274228668
 21
377.0404049995916
  0
LINE
  8
_0-2_製品
  6
CONTINUOUS
 62
   83
 10
440.72205274228668
 20
377.0404049995916
 11
440.48319207160193
 21
377.46141637711014
  0
LINE
  8
_0-2_製品
  6
CONTINUOUS
 62
   83
 10
440.48319207160193
 20
377.46141637711014
 11
440.24164439514857
 21
377.88002359157258
  0
LINE
  8
_0-2_製品
  6
CONTINUOUS
 62
   83
 10
440.24164439514857
 20
377.88002359157258
 11
439.99769255563922
 21
378.29594380026651
  0
LINE
  8
_0-2_製品
  6
CONTINUOUS
 62
   83
 10
439.99769255563922
 20
378.29594380026651
 11
439.75119513171751
 21
378.70931842454809
  0
LINE
  8
_0-2_製品
  6
CONTINUOUS
 62
   83
 10
439.75119513171751
 20
378.70931842454809
 11
439.50201070202741
 21
379.12028888577379
  0
LINE
  8
_0-2_製品
  6
CONTINUOUS
 62
   83
 10
439.50201070202741
 20
379.12028888577379
 11
439.25028068792506
 21
379.52843091987472
  0
LINE
  8
_0-2_製品
  6
CONTINUOUS
 62
   83
 10
439.25028068792506
 20
379.52843091987472
 11
438.99614651076661
 21
379.9341687909195
  0
LINE
  8
_0-2_製品
  6
CONTINUOUS
 62
   83
 10
438.99614651076661
 20
379.9341687909195
 11
438.73918390648339
 21
380.33736107755203
  0
LINE
  8
_0-2_製品
  6
CONTINUOUS
 62
   83
 10
438.73918390648339
 20
380.33736107755203
 11
438.47981713914407
 21
380.73786635841611
  0
LINE
  8
_0-2_製品
  6
CONTINUOUS
 62
   83
 10
438.47981713914407
 20
380.73786635841611
 11
438.21790478739263
 21
381.13582605486789
  0
LINE
  8
_0-2_製品
  6
CONTINUOUS
 62
   83
 10
438.21790478739263
 20
381.13582605486789
 11
437.95330542987267
 21
381.53138158826368
  0
LINE
  8
_0-2_製品
  6
CONTINUOUS
 62
   83
 10
437.95330542987267
 20
381.53138158826368
 11
437.68616048794047
 21
381.92410869453471
  0
LINE
  8
_0-2_製品
  6
CONTINUOUS
 62
   83
 10
437.68616048794047
 20
381.92410869453471
 11
437.41661138295206
 21
382.31443163774964
  0
LINE
  8
_0-2_製品
  6
CONTINUOUS
 62
   83
 10
437.41661138295206
 20
382.31443163774964
 11
437.14423385083899
 21
382.70220899655232
  0
LINE
  8
_0-2_製品
  6
CONTINUOUS
 62
   83
 10
437.14423385083899
 20
382.70220899655232
 11
436.86945215566993
 21
383.08729934958649
  0
LINE
  8
_0-2_製品
  6
CONTINUOUS
 62
   83
 10
436.86945215566993
 20
383.08729934958649
 11
436.59212487608852
 21
383.46984411820847
  0
LINE
  8
_0-2_製品
  6
CONTINUOUS
 62
   83
 10
436.59212487608852
 20
383.46984411820847
 11
436.31211059073871
 21
383.84998472377436
  0
LINE
  8
_0-2_製品
  6
CONTINUOUS
 62
   83
 10
436.31211059073871
 20
383.84998472377436
 11
436.02969214233281
 21
384.22743832357179
  0
LINE
  8
_0-2_製品
  6
CONTINUOUS
 62
   83
 10
436.02969214233281
 20
384.22743832357179
 11
435.74472810951465
 21
384.60234633895686
  0
LINE
  8
_0-2_製品
  6
CONTINUOUS
 62
   83
 10
435.74472810951465
 20
384.60234633895686
 11
435.63894493504904
 21
384.73924221179448
  0
LINE
  8
_0-2_製品
  6
CONTINUOUS
 62
   83
 10
435.66411793645932
 20
385.13465632383407
 11
437.51758623130559
 21
386.98812461868027
  0
LINE
  8
_0-2_製品
  6
CONTINUOUS
 62
   83
 10
437.96575050922149
 20
386.96111313963888
 11
437.98187254383265
 21
386.9407484643408
  0
LINE
  8
_0-2_製品
  6
CONTINUOUS
 62
   83
 10
437.98187254383265
 20
386.9407484643408
 11
438.28451424618038
 21
386.54901130756332
  0
LINE
  8
_0-2_製品
  6
CONTINUOUS
 62
   83
 10
438.28451424618038
 20
386.54901130756332
 11
438.58432752140357
 21
386.15472856637376
  0
LINE
  8
_0-2_製品
  6
CONTINUOUS
 62
   83
 10
438.58432752140357
 20
386.15472856637376
 11
438.88131236950187
 21
385.75761739805944
  0
LINE
  8
_0-2_製品
  6
CONTINUOUS
 62
   83
 10
438.88131236950187
 20
385.75761739805944
 11
439.17575163318793
 21
385.3579606453327
  0
LINE
  8
_0-2_製品
  6
CONTINUOUS
 62
   83
 10
439.17575163318793
 20
385.3579606453327
 11
439.46736246974933
 21
384.95575830819388
  0
LINE
  8
_0-2_製品
  6
CONTINUOUS
 62
   83
 10
439.46736246974933
 20
384.95575830819388
 11
439.75628630054211
 21
384.55086896528644
  0
LINE
  8
_0-2_製品
  6
CONTINUOUS
 62
   83
 10
439.75628630054211
 20
384.55086896528644
 11
440.04238170421024
 21
384.14343403796681
  0
LINE
  8
_0-2_製品
  6
CONTINUOUS
 62
   83
 10
440.04238170421024
 20
384.14343403796681
 11
440.32579010210975
 21
383.73331210487856
  0
LINE
  8
_0-2_製品
  6
CONTINUOUS
 62
   83
 10
440.32579010210975
 20
383.73331210487856
 11
440.6063700728846
 21
383.32064458737818
  0
LINE
  8
_0-2_製品
  6
CONTINUOUS
 62
   83
 10
440.6063700728846
 20
383.32064458737818
 11
440.88426303789083
 21
382.90529006410907
  0
LINE
  8
_0-2_製品
  6
CONTINUOUS
 62
   83
 10
440.88426303789083
 20
382.90529006410907
 11
441.15918615441626
 21
382.48724853507173
  0
LINE
  8
_0-2_製品
  6
CONTINUOUS
 62
   83
 10
441.15918615441626
 20
382.48724853507173
 11
441.43170510788548
 21
382.06680284297812
  0
LINE
  8
_0-2_製品
  6
CONTINUOUS
 62
   83
 10
441.43170510788548
 20
382.06680284297812
 11
441.70125421287378
 21
381.64367014511606
  0
LINE
  8
_0-2_製品
  6
CONTINUOUS
 62
   83
 10
441.70125421287378
 20
381.64367014511606
 11
441.96811631209357
 21
381.21785044148555
  0
LINE
  8
_0-2_製品
  6
CONTINUOUS
 62
   83
 10
441.96811631209357
 20
381.21785044148555
 11
442.23214998418871
 21
380.78948515344274
  0
LINE
  8
_0-2_製品
  6
CONTINUOUS
 62
   83
 10
442.23214998418871
 20
380.78948515344274
 11
442.49349665051534
 21
380.35871570234394
  0
LINE
  8
_0-2_製品
  6
CONTINUOUS
 62
   83
 10
442.49349665051534
 20
380.35871570234394
 11
442.75201488971709
 21
379.92511782412032
  0
LINE
  8
_0-2_製品
  6
CONTINUOUS
 62
   83
 10
442.75201488971709
 20
379.92511782412032
 11
443.00784612315033
 21
379.4891157828406
  0
LINE
  8
_0-2_製品
  6
CONTINUOUS
 62
   83
 10
443.00784612315033
 20
379.4891157828406
 11
443.26070750810266
 21
379.05042673579248
  0
LINE
  8
_0-2_製品
  6
CONTINUOUS
 62
   83
 10
443.26070750810266
 20
379.05042673579248
 11
443.51102330864262
 21
378.60919210433212
  0
LINE
  8
_0-2_製品
  6
CONTINUOUS
 62
   83
 10
443.51102330864262
 20
378.60919210433212
 11
443.75865210341419
 21
378.16555330981566
  0
LINE
  8
_0-2_製品
  6
CONTINUOUS
 62
   83
 10
443.75865210341419
 20
378.16555330981566
 11
444.003452471061
 21
377.71908608817455
  0
LINE
  8
_0-2_製品
  6
CONTINUOUS
 62
   83
 10
444.003452471061
 20
377.71908608817455
 11
444.24528299022677
 21
377.27021470347728
  0
LINE
  8
_0-2_製品
  6
CONTINUOUS
 62
   83
 10
444.24528299022677
 20
377.27021470347728
 11
444.4845679249803
 21
376.81879773436776
  0
LINE
  8
_0-2_製品
  6
CONTINUOUS
 62
   83
 10
444.4845679249803
 20
376.81879773436776
 11
444.72116585396543
 21
376.3646937594898
  0
LINE
  8
_0-2_製品
  6
CONTINUOUS
 62
   83
 10
444.72116585396543
 20
376.3646937594898
 11
444.95479393446942
 21
375.90818562155579
  0
LINE
  8
_0-2_製品
  6
CONTINUOUS
 62
   83
 10
444.95479393446942
 20
375.90818562155579
 11
445.18587643056117
 21
375.44913189920948
  0
LINE
  8
_0-2_製品
  6
CONTINUOUS
 62
   83
 10
445.18587643056117
 20
375.44913189920948
 11
445.41413049952814
 21
374.98753259245086
  0
LINE
  8
_0-2_製品
  6
CONTINUOUS
 62
   83
 10
445.41413049952814
 20
374.98753259245086
 11
445.63969756272661
 21
374.52324627992374
  0
LINE
  8
_0-2_製品
  6
CONTINUOUS
 62
   83
 10
445.63969756272661
 20
374.52324627992374
 11
445.86229477744428
 21
374.05655580434075
  0
LINE
  8
_0-2_製品
  6
CONTINUOUS
 62
   83
 10
445.86229477744428
 20
374.05655580434075
 11
446.08234640774947
 21
373.58731974434522
  0
LINE
  8
_0-2_製品
  6
CONTINUOUS
 62
   83
 10
446.08234640774947
 20
373.58731974434522
 11
446.29956961093001
 21
373.11553809993757
  0
LINE
  8
_0-2_製品
  6
CONTINUOUS
 62
   83
 10
446.29956961093001
 20
373.11553809993757
 11
446.51396438698566
 21
372.64121087111766
  0
LINE
  8
_0-2_製品
  6
CONTINUOUS
 62
   83
 10
446.51396438698566
 20
372.64121087111766
 11
446.7258135786293
 21
372.16433805788552
  0
LINE
  8
_0-2_製品
  6
CONTINUOUS
 62
   83
 10
446.7258135786293
 20
372.16433805788552
 11
446.93483434314794
 21
371.68491966024101
  0
LINE
  8
_0-2_製品
  6
CONTINUOUS
 62
   83
 10
446.93483434314794
 20
371.68491966024101
 11
447.14088525918567
 21
371.2030970995404
  0
LINE
  8
_0-2_製品
  6
CONTINUOUS
 62
   83
 10
447.14088525918567
 20
371.2030970995404
 11
447.34439059081114
 21
370.71872895442766
  0
LINE
  8
_0-2_製品
  6
CONTINUOUS
 62
   83
 10
447.34439059081114
 20
370.71872895442766
 11
447.54535033802449
 21
370.23181522490268
  0
LINE
  8
_0-2_製品
  6
CONTINUOUS
 62
   83
 10
447.54535033802449
 20
370.23181522490268
 11
447.74319881540032
 21
369.74235591096533
  0
LINE
  8
_0-2_製品
  6
CONTINUOUS
 62
   83
 10
447.74319881540032
 20
369.74235591096533
 11
447.93864312972039
 21
369.250492433972
  0
LINE
  8
_0-2_製品
  6
CONTINUOUS
 62
   83
 10
447.93864312972039
 20
369.250492433972
 11
448.13111759555932
 21
368.75594195121005
  0
LINE
  8
_0-2_製品
  6
CONTINUOUS
 62
   83
 10
448.13111759555932
 20
368.75594195121005
 11
448.32090505562974
 21
368.25898730539211
  0
LINE
  8
_0-2_製品
  6
CONTINUOUS
 62
   83
 10
448.32090505562974
 20
368.25898730539211
 11
448.50800550993176
 21
367.75962849651819
  0
LINE
  8
_0-2_製品
  6
CONTINUOUS
 62
   83
 10
448.50800550993176
 20
367.75962849651819
 11
448.69227753710902
 21
367.25772410323202
  0
LINE
  8
_0-2_製品
  6
CONTINUOUS
 62
   83
 10
448.69227753710902
 20
367.25772410323202
 11
448.87400397987392
 21
366.75327412553349
  0
LINE
  8
_0-2_製品
  6
CONTINUOUS
 62
   83
 10
448.87400397987392
 20
366.75327412553349
 11
449.0527605741579
 21
366.24641998477904
  0
LINE
  8
_0-2_製品
  6
CONTINUOUS
 62
   83
 10
449.0527605741579
 20
366.24641998477904
 11
449.22897158402952
 21
365.73702025961217
  0
LINE
  8
_0-2_製品
  6
CONTINUOUS
 62
   83
 10
449.22897158402952
 20
365.73702025961217
 11
449.4023541667766
 21
365.22507495003316
  0
LINE
  8
_0-2_製品
  6
CONTINUOUS
 62
   83
 10
449.4023541667766
 20
365.22507495003316
 11
449.57319116511121
 21
364.71058405604185
  0
LINE
  8
_0-2_製品
  6
CONTINUOUS
 62
   83
 10
449.57319116511121
 20
364.71058405604185
 11
449.7410583149649
 21
364.19368899899445
  0
LINE
  8
_0-2_製品
  6
CONTINUOUS
 62
   83
 10
449.7410583149649
 20
364.19368899899445
 11
449.90623845905009
 21
363.67438977889111
  0
LINE
  8
_0-2_製品
  6
CONTINUOUS
 62
   83
 10
449.90623845905009
 20
363.67438977889111
 11
450.06887301872302
 21
363.15254497437542
  0
LINE
  8
_0-2_製品
  6
CONTINUOUS
 62
   83
 10
450.06887301872302
 20
363.15254497437542
 11
450.22867915127119
 21
362.62815458544753
  0
LINE
  8
_0-2_製品
  6
CONTINUOUS
 62
   83
 10
450.22867915127119
 20
362.62815458544753
 11
450.38579827805074
 21
362.10136003346344
  0
LINE
  8
_0-2_製品
  6
CONTINUOUS
 62
   83
 10
450.38579827805074
 20
362.10136003346344
 11
450.54023039906201
 21
361.57216131842353
  0
LINE
  8
_0-2_製品
  6
CONTINUOUS
 62
   83
 10
450.54023039906201
 20
361.57216131842353
 11
450.69197551430454
 21
361.04027559761494
  0
LINE
  8
_0-2_製品
  6
CONTINUOUS
 62
   83
 10
450.69197551430454
 20
361.04027559761494
 11
450.84089220242242
 21
360.50612713510657
  0
LINE
  8
_0-2_製品
  6
CONTINUOUS
 62
   83
 10
450.84089220242242
 20
360.50612713510657
 11
450.9871218847718
 21
359.96929166682975
  0
LINE
  8
_0-2_製品
  6
CONTINUOUS
 62
   83
 10
450.9871218847718
 20
359.96929166682975
 11
451.13080598270892
 21
359.4301934568532
  0
LINE
  8
_0-2_製品
  6
CONTINUOUS
 62
   83
 10
451.13080598270892
 20
359.4301934568532
 11
451.27152023216502
 21
358.88840824110804
  0
LINE
  8
_0-2_製品
  6
CONTINUOUS
 62
   83
 10
451.27152023216502
 20
358.88840824110804
 11
451.40968889720887
 21
358.34436028366309
  0
LINE
  8
_0-2_製品
  6
CONTINUOUS
 62
   83
 10
451.40968889720887
 20
358.34436028366309
 11
451.54531197784058
 21
357.79776674180596
  0
LINE
  8
_0-2_製品
  6
CONTINUOUS
 62
   83
 10
451.54531197784058
 20
357.79776674180596
 11
451.67810663134742
 21
357.24862761553646
  0
LINE
  8
_0-2_製品
  6
CONTINUOUS
 62
   83
 10
451.67810663134742
 20
357.24862761553646
 11
451.80821427908563
 21
356.69708432621098
  0
LINE
  8
_0-2_製品
  6
CONTINUOUS
 62
   83
 10
451.80821427908563
 20
356.69708432621098
 11
451.93549349969919
 21
356.14299545247314
  0
LINE
  8
_0-2_製品
  6
CONTINUOUS
 62
   83
 10
451.93549349969919
 20
356.14299545247314
 11
452.06022713590062
 21
355.58664383703564
  0
LINE
  8
_0-2_製品
  6
CONTINUOUS
 62
   83
 10
452.06022713590062
 20
355.58664383703564
 11
452.18213234497705
 21
355.02774663718571
  0
LINE
  8
_0-2_製品
  6
CONTINUOUS
 62
   83
 10
452.18213234497705
 20
355.02774663718571
 11
452.30149196964135
 21
354.4663038529236
  0
LINE
  8
_0-2_製品
  6
CONTINUOUS
 62
   83
 10
452.30149196964135
 20
354.4663038529236
 11
452.41802316718088
 21
353.90231548424924
  0
LINE
  8
_0-2_製品
  6
CONTINUOUS
 62
   83
 10
452.41802316718088
 20
353.90231548424924
 11
452.53200878030816
 21
353.33606437387505
  0
LINE
  8
_0-2_製品
  6
CONTINUOUS
 62
   83
 10
452.53200878030816
 20
353.33606437387505
 11
452.64330738766694
 21
352.76712625773234
  0
LINE
  8
_0-2_製品
  6
CONTINUOUS
 62
   83
 10
452.64330738766694
 20
352.76712625773234
 11
452.75177756790094
 21
352.19592539988986
  0
LINE
  8
_0-2_製品
  6
CONTINUOUS
 62
   83
 10
452.75177756790094
 20
352.19592539988986
 11
452.85770216372271
 21
351.62217895763501
  0
LINE
  8
_0-2_製品
  6
CONTINUOUS
 62
   83
 10
452.85770216372271
 20
351.62217895763501
 11
452.96093975377596
 21
351.04602835232424
  0
LINE
  8
_0-2_製品
  6
CONTINUOUS
 62
   83
 10
452.96093975377596
 20
351.04602835232424
 11
453.06163175941697
 21
350.46733216260122
  0
LINE
  8
_0-2_製品
  6
CONTINUOUS
 62
   83
 10
453.06163175941697
 20
350.46733216260122
 11
453.15949533793309
 21
349.88637323117837
  0
LINE
  8
_0-2_製品
  6
CONTINUOUS
 62
   83
 10
453.15949533793309
 20
349.88637323117837
 11
453.25467191068083
 21
349.30272729398695
  0
LINE
  8
_0-2_製品
  6
CONTINUOUS
 62
   83
 10
453.25467191068083
 20
349.30272729398695
 11
453.3473028990162
 21
348.71653577238328
  0
LINE
  8
_0-2_製品
  6
CONTINUOUS
 62
   83
 10
453.3473028990162
 20
348.71653577238328
 11
453.43710546022703
 21
348.12808150907983
  0
LINE
  8
_0-2_製品
  6
CONTINUOUS
 62
   83
 10
453.43710546022703
 20
348.12808150907983
 11
453.5243624370255
 21
347.5370816613642
  0
LINE
  8
_0-2_製品
  6
CONTINUOUS
 62
   83
 10
453.5243624370255
 20
347.5370816613642
 11
453.60893240805535
 21
346.94367765059241
  0
LINE
  8
_0-2_製品
  6
CONTINUOUS
 62
   83
 10
453.60893240805535
 20
346.94367765059241
 11
453.6908153733167
 21
346.34786947676457
  0
LINE
  8
_0-2_製品
  6
CONTINUOUS
 62
   83
 10
453.6908153733167
 20
346.34786947676457
 11
453.77015275416579
 21
345.74951571852455
  0
LINE
  8
_0-2_製品
  6
CONTINUOUS
 62
   83
 10
453.77015275416579
 20
345.74951571852455
 11
453.84652028653397
 21
345.14875779722848
  0
LINE
  8
_0-2_製品
  6
CONTINUOUS
 62
   83
 10
453.84652028653397
 20
345.14875779722848
 11
453.92062507720232
 21
344.54545429152017
  0
LINE
  8
_0-2_製品
  6
CONTINUOUS
 62
   83
 10
453.92062507720232
 20
344.54545429152017
 11
453.99176001938974
 21
343.93974662275571
  0
LINE
  8
_0-2_製品
  6
CONTINUOUS
 62
   83
 10
453.99176001938974
 20
343.93974662275571
 11
454.06049079852096
 21
343.33163479093525
  0
LINE
  8
_0-2_製品
  6
CONTINUOUS
 62
   83
 10
454.06049079852096
 20
343.33163479093525
 11
454.12639315052763
 21
342.72097737470256
  0
LINE
  8
_0-2_製品
  6
CONTINUOUS
 62
   83
 10
454.12639315052763
 20
342.72097737470256
 11
454.18974991812195
 21
342.10777437405761
  0
LINE
  8
_0-2_製品
  6
CONTINUOUS
 62
   83
 10
454.18974991812195
 20
342.10777437405761
 11
454.25027825859149
 21
341.49230863171283
  0
LINE
  8
_0-2_製品
  6
CONTINUOUS
 62
   83
 10
454.25027825859149
 20
341.49230863171283
 11
454.30854385736131
 21
340.87429730495586
  0
LINE
  8
_0-2_製品
  6
CONTINUOUS
 62
   83
 10
454.30854385736131
 20
340.87429730495586
 11
454.36383960765011
 21
340.25388181514273
  0
LINE
  8
_0-2_製品
  6
CONTINUOUS
 62
   83
 10
454.36383960765011
 20
340.25388181514273
 11
454.41658977352654
 21
339.6309207409173
  0
LINE
  8
_0-2_製品
  6
CONTINUOUS
 62
   83
 10
454.41658977352654
 20
339.6309207409173
 11
454.46665293363458
 21
339.00555550363595
  0
LINE
  8
_0-2_製品
  6
CONTINUOUS
 62
   83
 10
454.46665293363458
 20
339.00555550363595
 11
454.51417050933026
 21
338.37764468194234
  0
LINE
  8
_0-2_製品
  6
CONTINUOUS
 62
   83
 10
454.51417050933026
 20
338.37764468194234
 11
454.55900107925754
 21
337.74732969719264
  0
LINE
  8
_0-2_製品
  6
CONTINUOUS
 62
   83
 10
454.55900107925754
 20
337.74732969719264
 11
454.60100322206006
 21
337.11446912803069
  0
LINE
  8
_0-2_製品
  6
CONTINUOUS
 62
   83
 10
454.60100322206006
 20
337.11446912803069
 11
454.64060120180648
 21
336.4792043958127
  0
LINE
  8
_0-2_製品
  6
CONTINUOUS
 62
   83
 10
454.64060120180648
 20
336.4792043958127
 11
454.67751217578439
 21
335.84153550053867
  0
LINE
  8
_0-2_製品
  6
CONTINUOUS
 62
   83
 10
454.67751217578439
 20
335.84153550053867
 11
454.71187756535005
 21
335.20132102085233
  0
LINE
  8
_0-2_製品
  6
CONTINUOUS
 62
   83
 10
454.71187756535005
 20
335.20132102085233
 11
454.74355594914721
 21
334.55870237811001
  0
LINE
  8
_0-2_製品
  6
CONTINUOUS
 62
   83
 10
454.74355594914721
 20
334.55870237811001
 11
454.77254732717586
 21
333.91367957231165
  0
LINE
  8
_0-2_製品
  6
CONTINUOUS
 62
   83
 10
454.77254732717586
 20
333.91367957231165
 11
454.79899312079226
 21
333.26611118210099
  0
LINE
  8
_0-2_製品
  6
CONTINUOUS
 62
   83
 10
454.79899312079226
 20
333.26611118210099
 11
454.8226104872839
 21
332.61599720747807
  0
LINE
  8
_0-2_製品
  6
CONTINUOUS
 62
   83
 10
454.8226104872839
 20
332.61599720747807
 11
454.84382369071943
 21
331.96347906979906
  0
LINE
  8
_0-2_製品
  6
CONTINUOUS
 62
   83
 10
454.84382369071943
 20
331.96347906979906
 11
454.86234988838658
 21
331.30855676906418
  0
LINE
  8
_0-2_製品
  6
CONTINUOUS
 62
   83
 10
454.86234988838658
 20
331.30855676906418
 11
454.87833050164147
 21
330.65108888391694
  0
LINE
  8
_0-2_製品
  6
CONTINUOUS
 62
   83
 10
454.87833050164147
 20
330.65108888391694
 11
454.89162410912763
 21
329.99121683571366
  0
LINE
  8
_0-2_製品
  6
CONTINUOUS
 62
   83
 10
454.89162410912763
 20
329.99121683571366
 11
454.9022307108454
 21
329.32894062445428
  0
LINE
  8
_0-2_製品
  6
CONTINUOUS
 62
   83
 10
454.9022307108454
 20
329.32894062445428
 11
454.91029172815104
 21
328.6641188287827
  0
LINE
  8
_0-2_製品
  6
CONTINUOUS
 62
   83
 10
454.91029172815104
 20
328.6641188287827
 11
454.91552431833179
 21
327.99675144869889
  0
LINE
  8
_0-2_製品
  6
CONTINUOUS
 62
   83
 10
454.91552431833179
 20
327.99675144869889
 11
454.91835274545656
 21
327.32697990555891
  0
LINE
  8
_0-2_製品
  6
CONTINUOUS
 62
   83
 10
454.91835274545656
 20
327.32697990555891
 11
454.91863558816908
 21
326.65466277800681
  0
LINE
  8
_0-2_製品
  6
CONTINUOUS
 62
   83
 10
454.91863558816908
 20
326.65466277800681
 11
454.91609000375672
 21
325.98008290875487
  0
LINE
  8
_0-2_製品
  6
CONTINUOUS
 62
   83
 10
454.91609000375672
 20
325.98008290875487
 11
454.91594858240046
 21
325.94486899105169
  0
LINE
  8
_0-2_製品
  6
CONTINUOUS
 62
   83
 10
454.82798449882102
 20
325.7349996983956
 11
393.86024787542306
 21
264.76726307499774
  0
LINE
  8
_0-2_製品
  6
CONTINUOUS
 62
   83
 10
451.71855313923129
 20
327.27521968917614
 11
451.71841171787491
 21
327.31976741639085
  0
LINE
  8
_0-2_製品
  6
CONTINUOUS
 62
   83
 10
451.71841171787491
 20
327.31976741639085
 11
451.71558329075015
 21
327.97709388018183
  0
LINE
  8
_0-2_製品
  6
CONTINUOUS
 62
   83
 10
451.71558329075015
 20
327.97709388018183
 11
451.71035070056939
 21
328.6317333382043
  0
LINE
  8
_0-2_製品
  6
CONTINUOUS
 62
   83
 10
451.71035070056939
 20
328.6317333382043
 11
451.70257252597639
 21
329.28382721181458
  0
LINE
  8
_0-2_製品
  6
CONTINUOUS
 62
   83
 10
451.70257252597639
 20
329.28382721181458
 11
451.69196592425851
 21
329.93337550101256
  0
ARC
  8
_0-2_製品
  6
CONTINUOUS
 62
   83
 10
435.87624997081525
 20
384.92252428947808
 40
0.2999999999999998
 50
135.00000000000003
 51
217.68700000000004
  0
ARC
  8
_0-2_製品
  6
CONTINUOUS
 62
   83
 10
437.72971826566152
 20
386.77599258432429
 40
0.2999999999999998
 50
38.126000000000033
 51
135.00000000000009
  0
ARC
  8
_0-2_製品
  6
CONTINUOUS
 62
   83
 10
454.61585246446498
 20
325.94713173275159
 40
0.2999999999999998
 50
315.00000000000006
 51
359.57300000000004
  0
ARC
  8
_0-2_製品
  6
CONTINUOUS
 62
   83
 10
451.41845702129558
 20
327.27521968917608
 40
0.2999999999999998
 50
315.00000000000006
 51
0.0160000000000664
  0
ARC
  8
_0-2_製品
  6
CONTINUOUS
 62
   83
 10
409.29257053210699
 20
249.36973007194825
 40
21.800000000000001
 50
135.06400000000002
 51
162.5644001675968
  0
LINE
  8
_0-2_製品
  6
CONTINUOUS
 62
   83
 10
384.48169837494538
 20
259.91419697411391
 11
451.63058905565163
 21
327.06308765482015
  0
LINE
  8
_0-2_製品
  6
CONTINUOUS
 62
   83
 10
521.08875550704181
 20
387.07599895277326
 11
275.49609995945923
 21
387.07599895277326
  0
LINE
  8
_0-2_製品
  6
CONTINUOUS
 62
   83
 10
521.08875550704181
 20
259.91426051798715
 11
522.58875550704181
 21
259.91426051798715
  0
LINE
  8
_0-2_製品
  6
CONTINUOUS
 62
   83
 10
521.08875550704181
 20
325.94718379277322
 11
275.49609995945923
 21
325.94718379277322
  0
LINE
  8
_0-2_製品
  6
CONTINUOUS
 62
   83
 10
521.08875550704181
 20
175.22772522425521
 11
275.49609995945923
 21
175.22772522425524
  0
LINE
  8
_0-2_製品
  6
CONTINUOUS
 62
   83
 10
521.08875550704181
 20
176.87122810825522
 11
275.49609995945923
 21
176.87122810825525
  0
LINE
  8
_0-2_製品
  6
CONTINUOUS
 62
   83
 10
522.58875550704181
 20
210.70732834825523
 11
275.49609995945923
 21
210.70732834825526
  0
LINE
  8
_0-2_製品
  6
CONTINUOUS
 62
   83
 10
522.58875550704181
 20
217.65413209525522
 11
275.49609995945923
 21
217.65413209525525
  0
LINE
  8
_0-2_製品
  6
CONTINUOUS
 62
   83
 10
522.58875550704181
 20
227.57447411225525
 11
275.49609995945923
 21
227.57447411225525
  0
LINE
  8
_0-2_製品
  6
CONTINUOUS
 62
   83
 10
275.49609995945923
 20
140.68346092581891
 11
522.58875550704181
 21
140.68346092581888
  0
LINE
  8
_0-2_製品
  6
CONTINUOUS
 62
   83
 10
521.08875550704181
 20
387.07599895277326
 11
521.08875550704181
 21
140.68346092581888
  0
LINE
  8
_0-2_製品
  6
CONTINUOUS
 62
   83
 10
522.58875550704181
 20
259.91426051798715
 11
522.58875550704181
 21
140.68346092581888
  0
TEXT
  8
_0-7_文字
 62
    7
 10
536.24496890733053
 20
191.58193482544914
 40
8
 41
0.8
 50
0
  1
小口ﾌﾀ
  0
LINE
  8
_0-7_文字
  6
CONTINUOUS
 62
    7
 10
536.24496890733053
 20
191.08193482544914
 11
521.74576986869795
 21
199.45305129343757
  0
LINE
  8
_0-7_文字
  6
CONTINUOUS
 62
    7
 10
536.24496890733053
 20
191.08193482544914
 11
555.44496890733046
 21
191.08193482544914
  0
ARC
  8
_0-2_製品
  6
CONTINUOUS
 62
    7
 10
9.0918287215185387
 20
438.86526919607218
 40
177.50386778216054
 50
306.87477870172927
 51
323.12522129827062
  0
LINE
  8
_0-2_製品
  6
dotted
 62
    7
 10
111.45552523551265
 20
294.07516581088476
 11
112.68589958939975
 21
294.07516581088476
  0
LINE
  8
_0-2_製品
  6
dotted
 62
    7
 10
109.45552523551265
 20
296.07516581088476
 11
114.68589958939975
 21
296.07516581088476
  0
LINE
  8
_0-2_製品
  6
dotted
 62
    7
 10
107.45552523551265
 20
298.07516581088476
 11
116.6858995893993
 21
298.07516581088476
  0
LINE
  8
_0-2_製品
  6
dotted
 62
    7
 10
105.45552523551265
 20
300.07516581088476
 11
118.6858995893993
 21
300.07516581088476
  0
LINE
  8
_0-2_製品
  6
dotted
 62
    7
 10
103.45552523551265
 20
302.07516581088476
 11
120.68589958939941
 21
302.07516581088476
  0
LINE
  8
_0-2_製品
  6
dotted
 62
    7
 10
101.45552523551265
 20
304.07516581088476
 11
122.68589958939941
 21
304.07516581088476
  0
LINE
  8
_0-2_製品
  6
dotted
 62
    7
 10
99.455525235512653
 20
306.07516581088476
 11
124.68589958939941
 21
306.07516581088476
  0
LINE
  8
_0-2_製品
  6
dotted
 62
    7
 10
97.455525235512653
 20
308.07516581088476
 11
126.68589958939941
 21
308.07516581088476
  0
LINE
  8
_0-2_製品
  6
dotted
 62
    7
 10
95.455525235512653
 20
310.07516581088476
 11
128.68589958939953
 21
310.07516581088476
  0
LINE
  8
_0-2_製品
  6
dotted
 62
    7
 10
94.087148489251206
 20
312.07516581088476
 11
130.68589958939953
 21
312.07516581088476
  0
LINE
  8
_0-2_製品
  6
dotted
 62
    7
 10
94.087148489251206
 20
314.07516581088476
 11
132.68589958939953
 21
314.07516581088476
  0
LINE
  8
_0-2_製品
  6
dotted
 62
    7
 10
94.087148489251206
 20
316.07516581088476
 11
134.68589958939953
 21
316.07516581088476
  0
LINE
  8
_0-2_製品
  6
dotted
 62
    7
 10
94.087148489251206
 20
318.07516581088476
 11
136.68589958939953
 21
318.07516581088476
  0
LINE
  8
_0-2_製品
  6
dotted
 62
    7
 10
94.087148489251206
 20
320.07516581088476
 11
138.68589958939964
 21
320.07516581088476
  0
LINE
  8
_0-2_製品
  6
dotted
 62
    7
 10
94.087148489251206
 20
322.07516581088476
 11
140.68589958939964
 21
322.07516581088476
  0
LINE
  8
_0-2_製品
  6
dotted
 62
    7
 10
81.78717369632335
 20
324.07516581088476
 11
142.68589958939964
 21
324.07516581088476
  0
LINE
  8
_0-2_製品
  6
dotted
 62
    7
 10
81.787205541935862
 20
326.07516581088476
 11
144.68589958939964
 21
326.07516581088476
  0
LINE
  8
_0-2_製品
  6
dotted
 62
    7
 10
81.787237387548259
 20
328.07516581088476
 11
146.68589958939975
 21
328.07516581088476
  0
LINE
  8
_0-2_製品
  6
dotted
 62
    7
 10
81.787269233160771
 20
330.07516581088476
 11
148.68589958939975
 21
330.07516581088476
  0
LINE
  8
_0-2_製品
  6
dotted
 62
    7
 10
81.787301078773282
 20
332.07516581088476
 11
150.68589958939975
 21
332.07516581088476
  0
LINE
  8
_0-2_製品
  6
dotted
 62
    7
 10
83.173343200787542
 20
334.07516581088476
 11
152.68589958939975
 21
334.07516581088476
  0
LINE
  8
_0-2_製品
  6
dotted
 62
    7
 10
85.173343200787542
 20
336.07516581088476
 11
154.68589958939975
 21
336.07516581088476
  0
LINE
  8
_0-2_製品
  6
dotted
 62
    7
 10
87.173343200787542
 20
338.07516581088476
 11
154.85392339017011
 21
338.07516581088476
  0
LINE
  8
_0-2_製品
  6
dotted
 62
    7
 10
89.173343200787542
 20
340.07516581088476
 11
152.85392339017011
 21
340.07516581088476
  0
LINE
  8
_0-2_製品
  6
dotted
 62
    7
 10
91.173343200787542
 20
342.07516581088476
 11
150.85392339017011
 21
342.07516581088476
  0
LINE
  8
_0-2_製品
  6
dotted
 62
    7
 10
93.173343200787542
 20
344.07516581088476
 11
148.85392339017011
 21
344.07516581088476
  0
LINE
  8
_0-2_製品
  6
dotted
 62
    7
 10
95.173343200787542
 20
346.07516581088476
 11
140.22234159488931
 21
346.07516581088476
  0
LINE
  8
_0-2_製品
  6
dotted
 62
    7
 10
97.173343200787542
 20
348.07516581088476
 11
136.20037662917906
 21
348.07516581088476
  0
LINE
  8
_0-2_製品
  6
dotted
 62
    7
 10
99.173343200787542
 20
350.07516581088476
 11
133.40060016790943
 21
350.07516581088476
  0
LINE
  8
_0-2_製品
  6
dotted
 62
    7
 10
101.17334320078754
 20
352.07516581088476
 11
131.24511658375098
 21
352.07516581088476
  0
LINE
  8
_0-2_製品
  6
dotted
 62
    7
 10
103.17334320078754
 20
354.07516581088476
 11
129.52211385122718
 21
354.07516581088476
  0
LINE
  8
_0-2_製品
  6
dotted
 62
    7
 10
105.17334320078754
 20
356.07516581088476
 11
128.12574004610786
 21
356.07516581088476
  0
LINE
  8
_0-2_製品
  6
dotted
 62
    7
 10
107.17334320078754
 20
358.07516581088476
 11
126.994561150729
 21
358.07516581088476
  0
LINE
  8
_0-2_製品
  6
dotted
 62
    7
 10
109.17334320078754
 20
360.07516581088476
 11
126.08976718921343
 21
360.07516581088476
  0
LINE
  8
_0-2_製品
  6
dotted
 62
    7
 10
111.17334320078754
 20
362.07516581088476
 11
125.38564627172792
 21
362.07516581088476
  0
LINE
  8
_0-2_製品
  6
dotted
 62
    7
 10
113.17334320078754
 20
364.07516581088476
 11
124.86484292596577
 21
364.07516581088476
  0
LINE
  8
_0-2_製品
  6
dotted
 62
    7
 10
115.17334320078754
 20
366.07516581088476
 11
124.51579697017149
 21
366.07516581088476
  0
LINE
  8
_0-2_製品
  6
dotted
 62
    7
 10
117.17334320078754
 20
368.07516581088476
 11
120.72906520662463
 21
368.07516581088476
  0
ARC
  8
_0-2_製品
  6
CONTINUOUS
 62
    7
 10
9.0918287215185387
 20
198.86526919607218
 40
177.50386778216054
 50
306.87477870172927
 51
323.12522129827062
  0
LINE
  8
_0-2_製品
  6
dotted
 62
    7
 10
111.45552523551265
 20
54.075165810884755
 11
112.68589958939975
 21
54.075165810884755
  0
LINE
  8
_0-2_製品
  6
dotted
 62
    7
 10
109.45552523551265
 20
56.075165810884755
 11
114.68589958939975
 21
56.075165810884755
  0
LINE
  8
_0-2_製品
  6
dotted
 62
    7
 10
107.45552523551265
 20
58.075165810884755
 11
116.6858995893993
 21
58.075165810884755
  0
LINE
  8
_0-2_製品
  6
dotted
 62
    7
 10
105.45552523551265
 20
60.075165810884755
 11
118.6858995893993
 21
60.075165810884755
  0
LINE
  8
_0-2_製品
  6
dotted
 62
    7
 10
103.45552523551265
 20
62.075165810884755
 11
120.68589958939941
 21
62.075165810884755
  0
LINE
  8
_0-2_製品
  6
dotted
 62
    7
 10
101.45552523551265
 20
64.075165810884755
 11
122.68589958939941
 21
64.075165810884755
  0
LINE
  8
_0-2_製品
  6
dotted
 62
    7
 10
99.455525235512653
 20
66.075165810884755
 11
124.68589958939941
 21
66.075165810884755
  0
LINE
  8
_0-2_製品
  6
dotted
 62
    7
 10
97.455525235512653
 20
68.075165810884755
 11
126.68589958939941
 21
68.075165810884755
  0
LINE
  8
_0-2_製品
  6
dotted
 62
    7
 10
95.455525235512653
 20
70.075165810884755
 11
128.68589958939953
 21
70.075165810884755
  0
LINE
  8
_0-2_製品
  6
dotted
 62
    7
 10
94.087148489251206
 20
72.075165810884755
 11
130.68589958939953
 21
72.075165810884755
  0
LINE
  8
_0-2_製品
  6
dotted
 62
    7
 10
94.087148489251206
 20
74.075165810884755
 11
132.68589958939953
 21
74.075165810884755
  0
LINE
  8
_0-2_製品
  6
dotted
 62
    7
 10
94.087148489251206
 20
76.075165810884755
 11
134.68589958939953
 21
76.075165810884755
  0
LINE
  8
_0-2_製品
  6
dotted
 62
    7
 10
94.087148489251206
 20
78.075165810884755
 11
136.68589958939953
 21
78.075165810884755
  0
LINE
  8
_0-2_製品
  6
dotted
 62
    7
 10
94.087148489251206
 20
80.075165810884755
 11
138.68589958939964
 21
80.075165810884755
  0
LINE
  8
_0-2_製品
  6
dotted
 62
    7
 10
94.087148489251206
 20
82.075165810884755
 11
140.68589958939964
 21
82.075165810884755
  0
LINE
  8
_0-2_製品
  6
dotted
 62
    7
 10
81.78717369632335
 20
84.075165810884755
 11
142.68589958939964
 21
84.075165810884755
  0
LINE
  8
_0-2_製品
  6
dotted
 62
    7
 10
81.787205541935862
 20
86.075165810884755
 11
144.68589958939964
 21
86.075165810884755
  0
LINE
  8
_0-2_製品
  6
dotted
 62
    7
 10
81.787237387548259
 20
88.075165810884755
 11
146.68589958939975
 21
88.075165810884755
  0
LINE
  8
_0-2_製品
  6
dotted
 62
    7
 10
81.787269233160771
 20
90.075165810884755
 11
148.68589958939975
 21
90.075165810884755
  0
LINE
  8
_0-2_製品
  6
dotted
 62
    7
 10
81.787301078773282
 20
92.075165810884755
 11
150.68589958939975
 21
92.075165810884755
  0
LINE
  8
_0-2_製品
  6
dotted
 62
    7
 10
83.173343200787542
 20
94.075165810884755
 11
152.68589958939975
 21
94.075165810884755
  0
LINE
  8
_0-2_製品
  6
dotted
 62
    7
 10
85.173343200787542
 20
96.075165810884755
 11
154.68589958939975
 21
96.075165810884755
  0
LINE
  8
_0-2_製品
  6
dotted
 62
    7
 10
87.173343200787542
 20
98.075165810884755
 11
154.85392339017011
 21
98.075165810884755
  0
LINE
  8
_0-2_製品
  6
dotted
 62
    7
 10
89.173343200787542
 20
100.07516581088476
 11
152.85392339017011
 21
100.07516581088476
  0
LINE
  8
_0-2_製品
  6
dotted
 62
    7
 10
91.173343200787542
 20
102.07516581088476
 11
150.85392339017011
 21
102.07516581088476
  0
LINE
  8
_0-2_製品
  6
dotted
 62
    7
 10
93.173343200787542
 20
104.07516581088476
 11
148.85392339017011
 21
104.07516581088476
  0
LINE
  8
_0-2_製品
  6
dotted
 62
    7
 10
95.173343200787542
 20
106.07516581088476
 11
140.22234159488931
 21
106.07516581088476
  0
LINE
  8
_0-2_製品
  6
dotted
 62
    7
 10
97.173343200787542
 20
108.07516581088476
 11
136.20037662917906
 21
108.07516581088476
  0
LINE
  8
_0-2_製品
  6
dotted
 62
    7
 10
99.173343200787542
 20
110.07516581088476
 11
133.40060016790943
 21
110.07516581088476
  0
LINE
  8
_0-2_製品
  6
dotted
 62
    7
 10
101.17334320078754
 20
112.07516581088476
 11
131.24511658375098
 21
112.07516581088476
  0
LINE
  8
_0-2_製品
  6
dotted
 62
    7
 10
103.17334320078754
 20
114.07516581088476
 11
129.52211385122718
 21
114.07516581088476
  0
LINE
  8
_0-2_製品
  6
dotted
 62
    7
 10
105.17334320078754
 20
116.07516581088476
 11
128.12574004610786
 21
116.07516581088476
  0
LINE
  8
_0-2_製品
  6
dotted
 62
    7
 10
107.17334320078754
 20
118.07516581088476
 11
126.994561150729
 21
118.07516581088476
  0
LINE
  8
_0-2_製品
  6
dotted
 62
    7
 10
109.17334320078754
 20
120.07516581088476
 11
126.08976718921343
 21
120.07516581088476
  0
LINE
  8
_0-2_製品
  6
dotted
 62
    7
 10
111.17334320078754
 20
122.07516581088476
 11
125.38564627172792
 21
122.07516581088476
  0
LINE
  8
_0-2_製品
  6
dotted
 62
    7
 10
113.17334320078754
 20
124.07516581088476
 11
124.86484292596577
 21
124.07516581088476
  0
LINE
  8
_0-2_製品
  6
dotted
 62
    7
 10
115.17334320078754
 20
126.07516581088476
 11
124.51579697017149
 21
126.07516581088476
  0
LINE
  8
_0-2_製品
  6
dotted
 62
    7
 10
117.17334320078754
 20
128.07516581088476
 11
120.72906520662463
 21
128.07516581088476
  0
ARC
  8
_0-2_製品
  6
CONTINUOUS
 62
    7
 10
9.0918287215185387
 20
438.86526919607218
 40
177.00386778216054
 50
306.87477870172927
 51
323.12522129827062
  0
ARC
  8
_0-2_製品
  6
CONTINUOUS
 62
    7
 10
9.0918287215185387
 20
198.86526919607218
 40
177.00386778216054
 50
306.87477870172927
 51
323.12522129827062
  0
TEXT
  8
_0-7_文字
 62
    7
 10
419.43840209528912
 20
159.46654781591204
 40
6
 41
0.7999999999999999
 50
0
  1
AL
  0
TEXT
  8
_0-7_文字
 62
    7
 10
419.43840209528912
 20
152.96654781591204
 40
6
 41
0.7999999999999999
 50
0
  1
遮音ﾙｰﾊﾞｰ
  0
LINE
  8
_0-7_文字
  6
CONTINUOUS
 62
    7
 10
419.43840209528912
 20
152.46654781591204
 11
441.03840209528914
 21
152.46654781591204
  0
LINE
  8
_0-7_文字
  6
CONTINUOUS
 62
    7
 10
419.43840209528912
 20
152.46654781591204
 11
410.14426449396296
 21
161.76068541723825
  0
LINE
  8
_0-7_文字
  6
CONTINUOUS
 62
    7
 10
368.60378436896821
 20
135.75542426399178
 11
368.60378436896821
 21
126.75542426399178
  0
LINE
  8
_0-7_文字
  6
CONTINUOUS
 62
    7
 10
367.60378436896821
 20
136.75542426399178
 11
367.60378436896821
 21
125.75542426399178
  0
LINE
  8
_0-7_文字
  6
CONTINUOUS
 62
    7
 10
368.60378436896821
 20
126.75542426399178
 11
427.00378436896824
 21
126.75542426399178
  0
LINE
  8
_0-7_文字
  6
CONTINUOUS
 62
    7
 10
368.60378436896821
 20
135.75542426399178
 11
427.00378436896824
 21
135.75542426399178
  0
LINE
  8
_0-7_文字
  6
CONTINUOUS
 62
    7
 10
427.00378436896824
 20
135.75542426399178
 11
427.00378436896824
 21
126.75542426399178
  0
LINE
  8
_0-7_文字
  6
CONTINUOUS
 62
    7
 10
367.60378436896821
 20
125.75542426399178
 11
428.00378436896824
 21
125.75542426399178
  0
LINE
  8
_0-7_文字
  6
CONTINUOUS
 62
    7
 10
428.00378436896824
 20
125.75542426399178
 11
428.00378436896824
 21
136.75542426399178
  0
LINE
  8
_0-7_文字
  6
CONTINUOUS
 62
    7
 10
428.00378436896824
 20
136.75542426399178
 11
367.60378436896821
 21
136.75542426399178
  0
TEXT
  8
_0-7_文字
 62
    7
 10
378.60378436896821
 20
127.25542426399178
 40
8
 41
0.8
 50
0
  1
立面図 S=1/2
  0
TEXT
  8
_0-7_文字
 62
    7
 10
109.62947996144175
 20
206.46691745893011
 40
6
 41
0.7999999999999999
 50
0
  1
吸音材
  0
LINE
  8
_0-2_製品
  6
CONTINUOUS
 62
   83
 10
521.08875550704181
 20
255.90175888498717
 11
522.58875550704181
 21
255.90175888498717
  0
LINE
  8
_0-2_製品
  6
DASHED1
 62
   83
 10
388.49413646407208
 20
255.90175888498717
 11
521.08875550704181
 21
255.90175888498717
  0
LINE
  8
_0-2_製品
  6
DASHED1
 62
   83
 10
384.48163483107214
 20
259.91426051798715
 11
521.08875550704181
 21
259.91426051798715
  0
LINE
  8
_9-8_
  6
CENTER1
 62
    7
 10
391.22837745609104
 20
96.708102855312887
 11
391.22837745609104
 21
110.19724268937566
  0
LINE
  8
_9-f_図形
  6
CONTINUOUS
 62
    7
 10
389.49275120609002
 20
97.924424152551381
 11
392.96400370609035
 21
97.924424152551381
  0
LINE
  8
_9-f_図形
  6
CONTINUOUS
 62
    7
 10
389.00712495609127
 20
98.174424152552007
 11
389.00712495609127
 21
99.674430402551053
  0
LINE
  8
_9-f_図形
  6
CONTINUOUS
 62
    7
 10
393.4496299560908
 20
98.174424152552007
 11
393.4496299560908
 21
99.674430402551053
  0
LINE
  8
_9-f_図形
  6
CONTINUOUS
 62
    7
 10
392.4783774560907
 20
99.674430402551053
 11
392.4783774560907
 21
98.174424152552007
  0
LINE
  8
_9-f_図形
  6
CONTINUOUS
 62
    7
 10
389.97837745609047
 20
99.674430402551053
 11
389.97837745609047
 21
98.174424152552007
  0
ARC
  8
_9-f_図形
  6
CONTINUOUS
 62
    7
 10
389.49275120609002
 20
98.521103902550777
 40
0.5966737499999997
 50
215.52233900000004
 51
324.47766100000007
  0
ARC
  8
_9-f_図形
  6
CONTINUOUS
 62
    7
 10
391.22837745609104
 20
101.17442415255184
 40
3.2500000000000022
 50
247.3801270000001
 51
292.6198730000001
  0
ARC
  8
_9-f_図形
  6
CONTINUOUS
 62
    7
 10
392.96400370609035
 20
98.521073402551025
 40
0.5966559999999996
 50
215.51995800000003
 51
324.48004200000003
  0
LINE
  8
_9-f_図形
  6
CONTINUOUS
 62
    7
 10
388.7283774560907
 20
99.674430402551053
 11
393.72837745609047
 21
99.674430402551053
  0
LINE
  8
_9-f_図形
  6
CONTINUOUS
 62
    7
 10
393.72837745609047
 20
100.17443040255145
 11
393.72837745609047
 21
99.674430402551053
  0
LINE
  8
_9-f_図形
  6
CONTINUOUS
 62
    7
 10
388.7283774560907
 20
100.1744304025523
 11
393.72837745609047
 21
100.1744304025523
  0
LINE
  8
_9-f_図形
  6
CONTINUOUS
 62
    7
 10
388.7283774560907
 20
100.1744304025523
 11
388.7283774560907
 21
99.674430402551053
  0
LINE
  8
_9-f_図形
  6
CONTINUOUS
 62
    7
 10
382.2283774560907
 20
91.174430414637442
 11
382.2283774560907
 21
96.174430414637158
  0
LINE
  8
_9-f_図形
  6
CONTINUOUS
 62
    7
 10
382.72837745609104
 20
96.174430414637158
 11
382.2283774560907
 21
96.174430414637158
  0
LINE
  8
_9-f_図形
  6
CONTINUOUS
 62
    7
 10
382.72837745609104
 20
91.174430414637442
 11
382.72837745609104
 21
96.174430414637158
  0
LINE
  8
_9-f_図形
  6
CONTINUOUS
 62
    7
 10
382.72837745609104
 20
91.174430414637442
 11
382.2283774560907
 21
91.174430414637442
  0
LINE
  8
_9-f_図形
  6
CONTINUOUS
 62
    7
 10
373.7283774560907
 20
87.674430414637214
 11
378.72837745609047
 21
87.674430414637214
  0
LINE
  8
_9-f_図形
  6
CONTINUOUS
 62
    7
 10
378.72837745609047
 20
87.174430414636817
 11
378.72837745609047
 21
87.674430414637214
  0
LINE
  8
_9-f_図形
  6
CONTINUOUS
 62
    7
 10
373.7283774560907
 20
87.174430414636817
 11
378.72837745609047
 21
87.174430414636817
  0
LINE
  8
_9-f_図形
  6
CONTINUOUS
 62
    7
 10
373.7283774560907
 20
87.174430414636817
 11
373.7283774560907
 21
87.674430414637214
  0
LINE
  8
_9-f_図形
  6
DASHED1
 62
    7
 10
374.97837745609047
 20
87.174430414636817
 11
374.97837745609047
 21
82.593582992366379
  0
LINE
  8
_9-f_図形
  6
DASHED1
 62
    7
 10
377.4783774560907
 20
87.174430414636817
 11
377.4783774560907
 21
82.593582992366379
  0
LINE
  8
_9-f_図形
  6
CONTINUOUS
 62
    7
 10
386.97838370609099
 20
95.41005666463704
 11
386.97838370609099
 21
91.93880416463756
  0
LINE
  8
_9-f_図形
  6
CONTINUOUS
 62
    7
 10
386.72838370609043
 20
95.895682914636637
 11
385.22837745609047
 21
95.895682914636637
  0
LINE
  8
_9-f_図形
  6
CONTINUOUS
 62
    7
 10
386.72838370609043
 20
91.453177914637109
 11
385.22837745609047
 21
91.453177914637109
  0
LINE
  8
_9-f_図形
  6
CONTINUOUS
 62
    7
 10
385.22837745609047
 20
92.424430414637158
 11
386.72838370609043
 21
92.424430414637158
  0
LINE
  8
_9-f_図形
  6
CONTINUOUS
 62
    7
 10
385.22837745609047
 20
94.924430414637442
 11
386.72838370609043
 21
94.924430414637442
  0
ARC
  8
_9-f_図形
  6
CONTINUOUS
 62
    7
 10
386.38170395609075
 20
95.41005666463704
 40
0.5966737499999997
 50
305.52233899999993
 51
54.477660999999955
  0
ARC
  8
_9-f_図形
  6
CONTINUOUS
 62
    7
 10
383.72838370609054
 20
93.674430414636873
 40
3.2500000000000022
 50
337.38012699999996
 51
22.619872999999924
  0
ARC
  8
_9-f_図形
  6
CONTINUOUS
 62
    7
 10
386.3817344560905
 20
91.93880416463756
 40
0.5966559999999997
 50
305.51995799999997
 51
54.480041999999933
  0
LINE
  8
_9-f_図形
  6
CONTINUOUS
 62
    7
 10
385.22837745609047
 20
96.174430414637158
 11
385.22837745609047
 21
91.174430414637442
  0
LINE
  8
_9-f_図形
  6
CONTINUOUS
 62
    7
 10
384.72837745609093
 20
91.174430414637442
 11
385.22837745609047
 21
91.174430414637442
  0
LINE
  8
_9-f_図形
  6
CONTINUOUS
 62
    7
 10
384.72837745609093
 20
96.174430414637158
 11
384.72837745609093
 21
91.174430414637442
  0
LINE
  8
_9-f_図形
  6
CONTINUOUS
 62
    7
 10
384.72837745609093
 20
96.174430414637158
 11
385.22837745609047
 21
96.174430414637158
  0
LINE
  8
_9-f_図形
  6
DASHED1
 62
    7
 10
382.72837745609104
 20
92.424430414637158
 11
384.72837745609093
 21
92.424430414637158
  0
LINE
  8
_9-f_図形
  6
DASHED1
 62
    7
 10
382.72837745609104
 20
94.924430414637442
 11
384.72837745609093
 21
94.924430414637442
  0
LINE
  8
_9-f_図形
  6
DASHED1
 62
    7
 10
392.4783774560907
 20
104.17443040255122
 11
392.4783774560907
 21
100.17443040255145
  0
LINE
  8
_9-f_図形
  6
DASHED1
 62
    7
 10
389.97837745609047
 20
104.17443040255208
 11
389.97837745609047
 21
100.17443040255145
  0
ARC
  8
_9-f_図形
  6
CONTINUOUS
 62
    7
 10
380.93670478911918
 20
91.834126431943019
 40
0.7083333330283789
 50
119.99999999997748
 51
240.00000000002254
  0
ARC
  8
_9-f_図形
  6
CONTINUOUS
 62
    7
 10
382.53045479016521
 20
93.674430414693148
 40
2.3020833340739451
 50
147.79577250846123
 51
212.20422749153877
  0
LINE
  8
_9-f_図形
  6
CONTINUOUS
 62
    7
 10
380.58253812260511
 20
92.447561092693178
 11
382.2283774560907
 21
92.447561092693178
  0
LINE
  8
_9-f_図形
  6
CONTINUOUS
 62
    7
 10
380.58253812260511
 20
94.901299736693119
 11
382.2283774560907
 21
94.901299736693119
  0
ARC
  8
_9-f_図形
  6
CONTINUOUS
 62
    7
 10
380.93670478911918
 20
95.514734397330727
 40
0.7083333330283789
 50
119.99999999997748
 51
240.00000000002254
  0
LINE
  8
_9-f_図形
  6
CONTINUOUS
 62
    7
 10
380.22837145609117
 20
91.834126431943019
 11
380.22837145609117
 21
95.514734397330727
  0
LINE
  8
_9-f_図形
  6
CONTINUOUS
 62
    7
 10
380.58253812260511
 20
91.220691771192861
 11
382.2283774560907
 21
91.220691771192861
  0
LINE
  8
_9-f_図形
  6
CONTINUOUS
 62
    7
 10
380.58253812366502
 20
96.128169058693089
 11
382.2283774560907
 21
96.128169058693089
  0
LINE
  8
_9-f_図形
  6
CONTINUOUS
 62
    7
 10
378.55337748749855
 20
92.67443041463693
 11
378.55337748749855
 21
94.674430414636817
  0
LINE
  8
_9-f_図形
  6
CONTINUOUS
 62
    7
 10
378.80337748749889
 20
92.424430414637158
 11
378.80337748749889
 21
94.924430414637442
  0
LINE
  8
_9-f_図形
  6
CONTINUOUS
 62
    7
 10
378.55337748749855
 20
94.674430414636817
 11
378.80337748749889
 21
94.924430414637442
  0
LINE
  8
_9-f_図形
  6
CONTINUOUS
 62
    7
 10
378.55337748749912
 20
92.67443041463693
 11
378.80337748749889
 21
92.424430414637158
  0
LINE
  8
_9-f_図形
  6
CONTINUOUS
 62
    7
 10
378.55337748749912
 20
92.67443041463693
 11
380.22837145609117
 21
92.67443041463693
  0
LINE
  8
_9-f_図形
  6
CONTINUOUS
 62
    7
 10
378.55337748749855
 20
94.674430414636817
 11
380.22837145609117
 21
94.674430414636817
  0
LINE
  8
_9-f_図形
  6
CONTINUOUS
 62
    7
 10
378.80337748749889
 20
92.424430414637158
 11
380.22837145609117
 21
92.424430414637158
  0
LINE
  8
_9-f_図形
  6
CONTINUOUS
 62
    7
 10
378.80337748749889
 20
94.924430414637442
 11
380.22837145609117
 21
94.924430414637442
  0
LINE
  8
_9-f_図形
  6
CONTINUOUS
 62
    7
 10
375.22837745609104
 20
90.999430446045011
 11
375.22837745609104
 21
89.749430446045295
  0
LINE
  8
_9-f_図形
  6
CONTINUOUS
 62
    7
 10
375.22837745609104
 20
90.999430446045011
 11
377.22837745609093
 21
90.999430446045011
  0
LINE
  8
_9-f_図形
  6
CONTINUOUS
 62
    7
 10
374.97837745609047
 20
90.749430446045238
 11
377.4783774560907
 21
90.749430446045238
  0
LINE
  8
_9-f_図形
  6
CONTINUOUS
 62
    7
 10
377.22837745609093
 20
90.999430446045011
 11
377.4783774560907
 21
90.749430446045238
  0
LINE
  8
_9-f_図形
  6
CONTINUOUS
 62
    7
 10
375.22837745609104
 20
90.999430446045011
 11
374.97837745609047
 21
90.749430446045238
  0
LINE
  8
_9-f_図形
  6
CONTINUOUS
 62
    7
 10
377.22837745609093
 20
90.999430446045011
 11
377.22837745609093
 21
89.749430446045295
  0
LINE
  8
_9-f_図形
  6
CONTINUOUS
 62
    7
 10
374.97837745609047
 20
90.749430446045238
 11
374.97837745609047
 21
89.749430446045295
  0
LINE
  8
_9-f_図形
  6
CONTINUOUS
 62
    7
 10
377.4783774560907
 20
90.749430446045238
 11
377.4783774560907
 21
89.749430446045295
  0
LINE
  8
_9-8_
  6
CENTER1
 62
    7
 10
388.19470500332955
 20
93.674430414636873
 11
376.64064454296602
 21
93.674430414636873
  0
LINE
  8
_9-5_鉄骨
  6
CONTINUOUS
 62
    7
 10
382.72837745609104
 20
97.924430402550939
 11
382.72837745609104
 21
88.799430402550712
  0
ARC
  8
_9-5_鉄骨
  6
CONTINUOUS
 62
    7
 10
381.10337745609172
 20
88.799430402550712
 40
1.625
 50
270
 51
0
  0
LINE
  8
_9-5_鉄骨
  6
CONTINUOUS
 62
    7
 10
371.97837745609149
 20
87.174430402551337
 11
381.10337745609172
 21
87.174430402551337
  0
ARC
  8
_9-5_鉄骨
  6
CONTINUOUS
 62
    7
 10
371.97837745609149
 20
86.424430402551167
 40
0.7500000000000001
 50
90
 51
180
  0
LINE
  8
_9-5_鉄骨
  6
CONTINUOUS
 62
    7
 10
371.22837745609127
 20
86.424430402551167
 11
371.22837745609127
 21
86.174430402551394
  0
LINE
  8
_9-5_鉄骨
  6
CONTINUOUS
 62
    7
 10
383.72837745609104
 20
86.174430402551394
 11
371.22837745609127
 21
86.174430402551394
  0
LINE
  8
_9-5_鉄骨
  6
CONTINUOUS
 62
    7
 10
383.47837745609127
 20
98.67443040255111
 11
383.72837745609104
 21
98.67443040255111
  0
ARC
  8
_9-5_鉄骨
  6
CONTINUOUS
 62
    7
 10
383.47837745609127
 20
97.924430402550939
 40
0.7500000000000001
 50
90
 51
180
  0
LINE
  8
_9-5_鉄骨
  6
CONTINUOUS
 62
    7
 10
383.72837745609104
 20
86.174430402551394
 11
383.72837745609104
 21
88.674430402551678
  0
LINE
  8
_9-d_______
  6
CONTINUOUS
 62
    7
 10
383.97837745609081
 20
88.674430402551678
 11
383.72837745609104
 21
88.674430402551678
  0
ARC
  8
_9-d_______
  6
CONTINUOUS
 62
    7
 10
383.97837745609081
 20
89.424430402551849
 40
0.7500000000000001
 50
270
 51
0
  0
LINE
  8
_9-d_______
  6
CONTINUOUS
 62
    7
 10
384.72837745609093
 20
89.424430402551849
 11
384.72837745609093
 21
98.549430402552076
  0
ARC
  8
_9-d_______
  6
CONTINUOUS
 62
    7
 10
386.35337745609036
 20
98.549430402552076
 40
1.6249999999999998
 50
90.000000000000028
 51
180
  0
LINE
  8
_9-d_______
  6
CONTINUOUS
 62
    7
 10
395.47837745609058
 20
100.17443040255145
 11
386.35337745609036
 21
100.17443040255145
  0
ARC
  8
_9-d_______
  6
CONTINUOUS
 62
    7
 10
395.47837745609058
 20
100.92443040255162
 40
0.7500000000000001
 50
270
 51
0
  0
LINE
  8
_9-d_______
  6
CONTINUOUS
 62
    7
 10
396.2283774560907
 20
100.92443040255162
 11
396.2283774560907
 21
101.17443040255139
  0
LINE
  8
_9-d_______
  6
CONTINUOUS
 62
    7
 10
383.72837745609104
 20
101.17443040255139
 11
396.2283774560907
 21
101.17443040255139
  0
LINE
  8
_9-d_______
  6
CONTINUOUS
 62
    7
 10
383.72837745609104
 20
88.674430402551678
 11
383.72837745609104
 21
101.17443040255139
  0
LINE
  8
_9-2_製品
  6
CONTINUOUS
 62
   83
 10
442.81170547345812
 20
61.950435635301204
 11
316.27109489094016
 21
61.950435635301204
  0
LINE
  8
_9-2_製品
  6
CONTINUOUS
 62
   83
 10
442.81170547345812
 20
61.380995932550917
 11
316.27109489094016
 21
61.380995932550917
  0
LINE
  8
_9-2_製品
  6
CONTINUOUS
 62
   83
 10
442.81170547345812
 20
57.090280143234651
 11
316.27109489094016
 21
57.090280143234651
  0
LINE
  8
_9-2_製品
  6
CONTINUOUS
 62
   83
 10
442.81170547345812
 20
86.174430402551394
 11
316.27109489094016
 21
86.174430402551394
  0
LINE
  8
_9-5_鉄骨
  6
DASHED2
 62
    7
 10
317.12251813701533
 20
101.17443040255139
 11
442.81170547345812
 21
101.17443040255139
  0
TEXT
  8
_9-7_文字
 62
    7
 10
323.30112881219117
 20
101.17443040255139
 40
6
 41
0.7999999999999999
 50
0
  1
▽下地面
  0
POINT
  8
_9-6_寸法
 62
    7
 10
327.49326644005015
 20
86.174430402551394
  0
POINT
  8
_9-6_寸法
 62
    7
 10
327.49326644005015
 20
57.090280143234651
  0
LINE
  8
_2-6_寸法
  6
CONTINUOUS
 62
    7
 10
327.49326644005015
 20
86.174430402551394
 11
327.49326644005015
 21
57.090280143234651
  0
TEXT
  8
_1-6_寸法
 62
    7
 10
327.09326644005012
 20
65.632355272893022
 40
6
 41
0.7999999999999999
 50
90
  1
116.3
  0
LINE
  8
_9-8_
  6
CENTER1
 62
    7
 10
376.22837745609058
 20
92.387494933479871
 11
376.22837745609058
 21
80.108848318083261
  0
LINE
  8
_9-7_文字
  6
CONTINUOUS
 62
    7
 10
402.95513016164864
 20
108.74524861103831
 11
394.59674588817097
 21
100.38686433756065
  0
TEXT
  8
_9-7_文字
 62
    7
 10
406.05121308953699
 20
76.295075695068675
 40
6
 41
0.7999999999999999
 50
0
  1
AL
  0
LINE
  8
_9-7_文字
  6
CONTINUOUS
 62
    7
 10
406.05121308953699
 20
69.295075695068675
 11
427.65121308953695
 21
69.295075695068675
  0
LINE
  8
_9-7_文字
  6
CONTINUOUS
 62
    7
 10
406.05121308953699
 20
69.295075695068675
 11
396.75707548821072
 21
78.589213296394888
  0
TEXT
  8
_9-7_文字
 62
    7
 10
406.05121308953699
 20
69.795075695068675
 40
6
 41
0.7999999999999999
 50
0
  1
遮音ﾙｰﾊﾞｰ
  0
LINE
  8
_9-7_文字
  6
CONTINUOUS
 62
    7
 10
349.47936392244952
 20
74.305692636336744
 11
366.27936392244953
 21
74.305692636336744
  0
TEXT
  8
_9-7_文字
 62
    7
 10
349.47936392244952
 20
74.805692636336744
 40
6
 41
0.7999999999999999
 50
0
  1
ｽﾄﾘﾝｶﾞｰ
  0
LINE
  8
_9-7_文字
  6
CONTINUOUS
 62
    7
 10
366.27936392244953
 20
74.305692636336744
 11
373.41809937326377
 21
86.670345138940178
  0
TEXT
  8
_9-7_文字
 62
    7
 10
402.95513016164864
 20
109.24524861103831
 40
6
 41
0.7999999999999999
 50
0
  1
ﾌﾞﾗｹｯﾄ
  0
LINE
  8
_9-7_文字
  6
CONTINUOUS
 62
    7
 10
402.95513016164864
 20
108.74524861103831
 11
417.35513016164862
 21
108.74524861103831
  0
LINE
  8
_9-7_文字
  6
CONTINUOUS
 62
    7
 10
364.53497606815961
 20
49.729191618323682
 11
364.53497606815961
 21
40.729191618323682
  0
LINE
  8
_9-7_文字
  6
CONTINUOUS
 62
    7
 10
363.53497606815961
 20
50.729191618323682
 11
363.53497606815961
 21
39.729191618323682
  0
LINE
  8
_9-7_文字
  6
CONTINUOUS
 62
    7
 10
364.53497606815961
 20
40.729191618323682
 11
422.93497606815959
 21
40.729191618323682
  0
LINE
  8
_9-7_文字
  6
CONTINUOUS
 62
    7
 10
364.53497606815961
 20
49.729191618323682
 11
422.93497606815959
 21
49.729191618323682
  0
LINE
  8
_9-7_文字
  6
CONTINUOUS
 62
    7
 10
422.93497606815959
 20
49.729191618323682
 11
422.93497606815959
 21
40.729191618323682
  0
LINE
  8
_9-7_文字
  6
CONTINUOUS
 62
    7
 10
363.53497606815961
 20
39.729191618323682
 11
423.93497606815959
 21
39.729191618323682
  0
LINE
  8
_9-7_文字
  6
CONTINUOUS
 62
    7
 10
423.93497606815959
 20
39.729191618323682
 11
423.93497606815959
 21
50.729191618323682
  0
LINE
  8
_9-7_文字
  6
CONTINUOUS
 62
    7
 10
423.93497606815959
 20
50.729191618323682
 11
363.53497606815961
 21
50.729191618323682
  0
TEXT
  8
_9-7_文字
 62
    7
 10
374.53497606815961
 20
41.229191618323682
 40
8
 41
0.8
 50
0
  1
平面図 S=1/8
  0
LINE
  8
_0-7_文字
  6
CONTINUOUS
 62
    7
 10
304.74042451906496
 20
197.71183659850098
 11
323.940424519065
 21
197.71183659850098
  0
TEXT
  8
_0-7_文字
 62
    7
 10
304.74042451906496
 20
198.21183659850098
 40
6
 41
0.7999999999999999
 50
0
  1
水抜き穴
  0
LINE
  8
_f-7_文字
  6
CONTINUOUS
 62
    7
 10
368.30597496788857
 20
35.61800386039269
 11
368.30597496788857
 21
14.437975244095043
  0
LINE
  8
_f-7_文字
  6
CONTINUOUS
 62
    7
 10
368.23538513332909
 20
35.61800386039269
 11
368.23538513332909
 21
14.437975244095043
  0
LINE
  8
_f-7_文字
  6
CONTINUOUS
 62
    7
 10
18.129954254347581
 20
35.61800386039269
 11
575.87003153498858
 21
35.61800386039269
  0
LINE
  8
_f-7_文字
  6
CONTINUOUS
 62
    7
 10
227.10592994297235
 20
35.61800386039269
 11
227.10592994297235
 21
14.437975244095043
  0
LINE
  8
_f-7_文字
  6
CONTINUOUS
 62
    7
 10
29.425954358331069
 20
35.61800386039269
 11
29.425954358331069
 21
14.437975244095043
  0
LINE
  8
_f-7_文字
  6
CONTINUOUS
 62
    7
 10
18.129954254347581
 20
35.688602439976108
 11
575.87003153498858
 21
35.688602439976108
  0
LINE
  8
_f-7_文字
  6
CONTINUOUS
 62
    7
 10
29.49655512417047
 20
35.61800386039269
 11
29.49655512417047
 21
14.437975244095043
  0
LINE
  8
_f-7_文字
  6
CONTINUOUS
 62
    7
 10
227.03532261836472
 20
35.61800386039269
 11
227.03532261836472
 21
14.437975244095043
  0
LINE
  8
_f-7_文字
  6
CONTINUOUS
 62
    7
 10
18.129954254347581
 20
14.437975244095043
 11
18.129954254347581
 21
405.56201163836909
  0
LINE
  8
_f-7_文字
  6
CONTINUOUS
 62
    7
 10
17.988753815796315
 20
14.296773712415956
 11
17.988753815796315
 21
405.70322628758413
  0
LINE
  8
_f-7_文字
  6
CONTINUOUS
 62
    7
 10
18.129954254347581
 20
405.56201163836909
 11
575.87003153498858
 21
405.56201163836909
  0
LINE
  8
_f-7_文字
  6
CONTINUOUS
 62
    7
 10
17.988753815796315
 20
405.70322628758413
 11
576.01124618420363
 21
405.70322628758413
  0
LINE
  8
_f-7_文字
  6
CONTINUOUS
 62
    7
 10
18.129954254347581
 20
14.437975244095043
 11
575.87003153498858
 21
14.437975244095043
  0
LINE
  8
_f-7_文字
  6
CONTINUOUS
 62
    7
 10
17.988753815796315
 20
14.296773712415956
 11
576.01124618420363
 21
14.296773712415956
  0
LINE
  8
_f-7_文字
  6
CONTINUOUS
 62
    7
 10
575.87003153498858
 20
405.56201163836909
 11
575.87003153498858
 21
14.437975244095043
  0
LINE
  8
_f-7_文字
  6
CONTINUOUS
 62
    7
 10
576.01124618420363
 20
405.70322628758413
 11
576.01124618420363
 21
14.296773712415956
  0
LINE
  8
_f-7_文字
  6
CONTINUOUS
 62
    7
 10
29.49655512417047
 20
17.967982928486038
 11
227.03532261836472
 21
17.967982928486038
  0
LINE
  8
_f-7_文字
  6
CONTINUOUS
 62
    7
 10
29.49655512417047
 20
32.087996176001695
 11
227.03532261836472
 21
32.087996176001695
  0
LINE
  8
_f-7_文字
  6
CONTINUOUS
 62
    7
 10
29.49655512417047
 20
28.557997236634776
 11
227.03532261836472
 21
28.557997236634776
  0
LINE
  8
_f-7_文字
  6
CONTINUOUS
 62
    7
 10
29.49655512417047
 20
21.497986240364895
 11
227.03532261836472
 21
21.497986240364895
  0
LINE
  8
_f-7_文字
  6
CONTINUOUS
 62
    7
 10
29.49655512417047
 20
25.027989552243781
 11
227.03532261836472
 21
25.027989552243781
  0
TEXT
  8
_f-7_文字
 62
    7
 10
285.36389069259479
 20
21.274688961013396
 40
4.2360000000000007
 41
1.0000000000000004
 50
0
  1
株式会社
  0
TEXT
  8
_f-7_文字
 62
    7
 10
306.50908705641945
 20
20.20570595968735
 40
7.0599999999999987
 41
1.0000000000000002
 50
0
  1
成 和
  0
TEXT
  8
_f-7_文字
 62
    7
 10
289.55457340578306
 20
29.055189375592846
 40
3.5300000000000011
 41
1.0000000000000004
 50
0
  1
ART & HIGH QUALITY
  0
CIRCLE
  8
_f-7_文字
  6
CONTINUOUS
 62
    7
 10
272.92725183674042
 20
27.791888218688086
 40
4.9702400000000022
  0
ARC
  8
_f-7_文字
  6
CONTINUOUS
 62
    7
 10
269.1601882553872
 20
23.217008218688107
 40
3.1628800000000012
 50
187.10120155509361
 51
353.53737870546405
  0
ARC
  8
_f-7_文字
  6
CONTINUOUS
 62
    7
 10
272.92725183674042
 20
27.791888218688086
 40
4.5748800000000012
 50
155.33101088150605
 51
219.18843721101356
  0
ARC
  8
_f-7_文字
  6
CONTINUOUS
 62
    7
 10
265.83336383674043
 20
26.888208218688106
 40
3.6712000000000011
 50
272.55953633092702
 51
326.73890631448978
  0
ARC
  8
_f-7_文字
  6
CONTINUOUS
 62
    7
 10
265.83336383674043
 20
26.888208218688106
 40
3.6712000000000011
 50
333.56873405662327
 51
351.80591259990899
  0
ARC
  8
_f-7_文字
  6
CONTINUOUS
 62
    7
 10
265.83336383674043
 20
26.888208218688106
 40
4.0665600000000017
 50
49.625095602912715
 51
324.89435248960689
  0
ARC
  8
_f-7_文字
  6
CONTINUOUS
 62
    7
 10
265.83336383674043
 20
26.888208218688106
 40
4.0665600000000017
 50
330.74911032092416
 51
43.770337771595386
  0
ARC
  8
_f-7_文字
  6
CONTINUOUS
 62
    7
 10
269.1601882553872
 20
23.217008218688107
 40
3.1628800000000012
 50
84.431796218087186
 51
100.33578538202846
  0
ARC
  8
_f-7_文字
  6
CONTINUOUS
 62
    7
 10
269.1601882553872
 20
23.217008218688107
 40
3.1628800000000012
 50
107.52493567857866
 51
179.93365271274885
  0
TEXT
  8
_f-7_文字
 62
    7
 10
274.71368307511682
 20
21.250853779002369
 40
2.1180000000000003
 41
0.7999999999999979
 50
0
  1
ＳＥＩＷＡ
  0
TEXT
  8
_f-7_文字
 62
    7
 10
261.01282635415339
 20
17.324694572210632
 40
2.4710000000000001
 41
0.7999999999999993
 50
0
  1
SEIWA CO.,Ltd.
  0
LINE
  8
_0-f_図形
  6
CONTINUOUS
 62
    7
 10
72.587155587975843
 20
199.38319593934688
 11
72.587155587975815
 21
182.38319593934682
  0
LINE
  8
_0-f_図形
  6
CONTINUOUS
 62
    7
 10
65.787155587975775
 20
182.63319593934682
 11
65.787155587975803
 21
199.13319593934685
  0
LINE
  8
_0-f_図形
  6
CONTINUOUS
 62
    7
 10
64.287155587975803
 20
198.38319593934688
 11
64.287155587975803
 21
183.38319593934682
  0
LINE
  8
_0-f_図形
  6
CONTINUOUS
 62
    7
 10
66.6820485879758
 20
181.08319593934684
 11
71.836600087975825
 21
181.08319593934681
  0
LINE
  8
_0-f_図形
  6
CONTINUOUS
 62
    7
 10
66.6820485879758
 20
185.98319593934681
 11
71.836600087975825
 21
185.98319593934681
  0
LINE
  8
_0-f_図形
  6
CONTINUOUS
 62
    7
 10
65.787155587975775
 20
182.63319593934682
 11
66.6820485879758
 21
181.08319593934684
  0
LINE
  8
_0-f_図形
  6
CONTINUOUS
 62
    7
 10
65.037155587975775
 20
182.63319593934682
 11
65.787155587975775
 21
182.63319593934682
  0
LINE
  8
_0-f_図形
  6
CONTINUOUS
 62
    7
 10
72.587155587975815
 20
182.38319593934682
 11
71.836600087975825
 21
181.08319593934681
  0
LINE
  8
_0-f_図形
  6
CONTINUOUS
 62
    7
 10
65.787155587975803
 20
199.13319593934685
 11
66.682048587975828
 21
200.68319593934689
  0
LINE
  8
_0-f_図形
  6
CONTINUOUS
 62
    7
 10
72.587155587975843
 20
199.38319593934688
 11
71.836600087975853
 21
200.68319593934689
  0
LINE
  8
_0-f_図形
  6
CONTINUOUS
 62
    7
 10
66.6820485879758
 20
195.78319593934694
 11
71.836600087975825
 21
195.78319593934691
  0
LINE
  8
_0-f_図形
  6
CONTINUOUS
 62
    7
 10
65.037155587975803
 20
199.13319593934685
 11
65.787155587975803
 21
199.13319593934685
  0
LINE
  8
_0-f_図形
  6
CONTINUOUS
 62
    7
 10
66.682048587975828
 20
200.68319593934689
 11
71.836600087975853
 21
200.68319593934689
  0
ARC
  8
_0-f_図形
  6
CONTINUOUS
 62
    7
 10
75.76191758797583
 20
190.17318093934682
 40
10
 50
175.92848900000004
 51
204.77137599999995
  0
ARC
  8
_0-f_図形
  6
CONTINUOUS
 62
    7
 10
62.635603087975795
 20
189.90003743934682
 40
10
 50
336.94066600000002
 51
5.6421969999999266
  0
ARC
  8
_0-f_図形
  6
CONTINUOUS
 62
    7
 10
65.037155587975803
 20
183.38319593934682
 40
0.75
 50
180
 51
270
  0
ARC
  8
_0-f_図形
  6
CONTINUOUS
 62
    7
 10
70.765519087975832
 20
183.09784193934692
 40
5
 50
144.75522000000001
 51
185.332145
  0
ARC
  8
_0-f_図形
  6
CONTINUOUS
 62
    7
 10
67.660110087975767
 20
183.23420893934693
 40
5
 50
350.20040299999999
 51
33.353117000000388
  0
ARC
  8
_0-f_図形
  6
CONTINUOUS
 62
    7
 10
75.76191758797583
 20
191.59321093934682
 40
10
 50
155.228624
 51
184.07151099999999
  0
ARC
  8
_0-f_図形
  6
CONTINUOUS
 62
    7
 10
70.765519087975832
 20
198.66854993934686
 40
5
 50
174.667855
 51
215.24477999999999
  0
ARC
  8
_0-f_図形
  6
CONTINUOUS
 62
    7
 10
65.037155587975803
 20
198.38319593934688
 40
0.75
 50
90
 51
180
  0
ARC
  8
_0-f_図形
  6
CONTINUOUS
 62
    7
 10
62.635603087975795
 20
191.86635443934682
 40
10
 50
354.35780300000005
 51
23.059333999999964
  0
ARC
  8
_0-f_図形
  6
CONTINUOUS
 62
    7
 10
67.660110087975795
 20
198.53218293934682
 40
5
 50
326.64688299999892
 51
9.7995970000000749
  0
LINE
  8
_0-7_文字
  6
CENTER1
 62
    7
 10
518.55507033551532
 20
148.40828139201165
 11
527.24076502091123
 21
148.40828139201165
  0
LINE
  8
_0-7_文字
  6
DASHED1
 62
    7
 10
507.58875550703999
 20
150.40828139201153
 11
506.58875550703976
 21
148.40828139201165
  0
LINE
  8
_0-7_文字
  6
DASHED1
 62
    7
 10
506.58875550703976
 20
148.40828139201165
 11
507.58875550703999
 21
146.40828139201176
  0
LINE
  8
_0-7_文字
  6
DASHED1
 62
    7
 10
506.58875550703976
 20
148.40828139201165
 11
506.58875550703976
 21
148.42828139201174
  0
LINE
  8
_0-7_文字
  6
DASHED1
 62
    7
 10
506.58875550703976
 20
148.42828139201174
 11
506.59875550704066
 21
148.4582813920116
  0
LINE
  8
_0-7_文字
  6
DASHED1
 62
    7
 10
506.59875550704066
 20
148.4582813920116
 11
506.59875550704066
 21
148.4782813920117
  0
LINE
  8
_0-7_文字
  6
DASHED1
 62
    7
 10
506.59875550704066
 20
148.4782813920117
 11
506.60875550703986
 21
148.49828139201236
  0
LINE
  8
_0-7_文字
  6
DASHED1
 62
    7
 10
506.60875550703986
 20
148.49828139201236
 11
506.61875550704019
 21
148.52828139201165
  0
LINE
  8
_0-7_文字
  6
DASHED1
 62
    7
 10
506.61875550704019
 20
148.52828139201165
 11
506.61875550704019
 21
148.54828139201118
  0
LINE
  8
_0-7_文字
  6
DASHED1
 62
    7
 10
506.61875550704019
 20
148.54828139201118
 11
506.63875550703972
 21
148.58828139201137
  0
LINE
  8
_0-7_文字
  6
DASHED1
 62
    7
 10
506.63875550703972
 20
148.58828139201137
 11
506.65875550703981
 21
148.60828139201146
  0
LINE
  8
_0-7_文字
  6
DASHED1
 62
    7
 10
506.65875550703981
 20
148.60828139201146
 11
506.67875550704048
 21
148.64828139201109
  0
LINE
  8
_0-7_文字
  6
DASHED1
 62
    7
 10
506.67875550704048
 20
148.64828139201109
 11
506.75875550703972
 21
148.72828139201204
  0
LINE
  8
_0-7_文字
  6
DASHED1
 62
    7
 10
506.75875550703972
 20
148.72828139201204
 11
506.78875550703958
 21
148.73828139201123
  0
LINE
  8
_0-7_文字
  6
DASHED1
 62
    7
 10
506.78875550703958
 20
148.73828139201123
 11
506.84875550704044
 21
148.77828139201142
  0
LINE
  8
_0-7_文字
  6
DASHED1
 62
    7
 10
506.84875550704044
 20
148.77828139201142
 11
506.96875550703987
 21
148.80828139201185
  0
LINE
  8
_0-7_文字
  6
DASHED1
 62
    7
 10
506.96875550703987
 20
148.80828139201185
 11
507.06875550703978
 21
148.82828139201195
  0
LINE
  8
_0-7_文字
  6
DASHED1
 62
    7
 10
507.06875550703978
 20
148.82828139201195
 11
507.18875550703922
 21
148.84828139201204
  0
LINE
  8
_0-7_文字
  6
DASHED1
 62
    7
 10
507.18875550703922
 20
148.84828139201204
 11
507.25875550703984
 21
148.84828139201204
  0
LINE
  8
_0-7_文字
  6
DASHED1
 62
    7
 10
507.25875550703984
 20
148.84828139201204
 11
507.32875550703989
 21
148.85828139201124
  0
LINE
  8
_0-7_文字
  6
DASHED1
 62
    7
 10
507.32875550703989
 20
148.85828139201124
 11
507.56875550704046
 21
148.85828139201124
  0
LINE
  8
_0-7_文字
  6
DASHED1
 62
    7
 10
507.56875550704046
 20
148.85828139201124
 11
507.65875550703947
 21
148.84828139201204
  0
LINE
  8
_0-7_文字
  6
DASHED1
 62
    7
 10
507.65875550703947
 20
148.84828139201204
 11
507.74875550704019
 21
148.84828139201204
  0
LINE
  8
_0-7_文字
  6
DASHED1
 62
    7
 10
507.74875550704019
 20
148.84828139201204
 11
507.8487555070401
 21
148.83828139201114
  0
LINE
  8
_0-7_文字
  6
DASHED1
 62
    7
 10
507.8487555070401
 20
148.83828139201114
 11
507.9587555070392
 21
148.83828139201114
  0
LINE
  8
_0-7_文字
  6
DASHED1
 62
    7
 10
507.9587555070392
 20
148.83828139201114
 11
508.06875550704001
 21
148.82828139201195
  0
LINE
  8
_0-7_文字
  6
DASHED1
 62
    7
 10
508.06875550704001
 20
148.82828139201195
 11
508.18875550704058
 21
148.81828139201161
  0
LINE
  8
_0-7_文字
  6
DASHED1
 62
    7
 10
508.18875550704058
 20
148.81828139201161
 11
508.30875550704002
 21
148.79828139201209
  0
LINE
  8
_0-7_文字
  6
DASHED1
 62
    7
 10
508.30875550704002
 20
148.79828139201209
 11
508.42875550703945
 21
148.78828139201119
  0
LINE
  8
_0-7_文字
  6
DASHED1
 62
    7
 10
508.42875550703945
 20
148.78828139201119
 11
508.55875550703979
 21
148.77828139201142
  0
LINE
  8
_0-7_文字
  6
DASHED1
 62
    7
 10
508.55875550703979
 20
148.77828139201142
 11
508.68875550704013
 21
148.75828139201133
  0
LINE
  8
_0-7_文字
  6
DASHED1
 62
    7
 10
508.68875550704013
 20
148.75828139201133
 11
508.82875550703909
 21
148.74828139201213
  0
LINE
  8
_0-7_文字
  6
DASHED1
 62
    7
 10
508.82875550703909
 20
148.74828139201213
 11
509.10875550704043
 21
148.70828139201194
  0
LINE
  8
_0-7_文字
  6
DASHED1
 62
    7
 10
509.10875550704043
 20
148.70828139201194
 11
509.55875550704002
 21
148.64828139201109
  0
LINE
  8
_0-7_文字
  6
DASHED1
 62
    7
 10
509.55875550704002
 20
148.64828139201109
 11
509.71875550703965
 21
148.62828139201156
  0
LINE
  8
_0-7_文字
  6
DASHED1
 62
    7
 10
509.71875550703965
 20
148.62828139201156
 11
509.86875550703951
 21
148.59828139201227
  0
LINE
  8
_0-7_文字
  6
DASHED1
 62
    7
 10
509.86875550703951
 20
148.59828139201227
 11
510.1887555070399
 21
148.55828139201151
  0
LINE
  8
_0-7_文字
  6
DASHED1
 62
    7
 10
510.1887555070399
 20
148.55828139201151
 11
510.35875550703986
 21
148.52828139201165
  0
LINE
  8
_0-7_文字
  6
DASHED1
 62
    7
 10
510.35875550703986
 20
148.52828139201165
 11
510.51875550704005
 21
148.50828139201155
  0
LINE
  8
_0-7_文字
  6
DASHED1
 62
    7
 10
510.51875550704005
 20
148.50828139201155
 11
510.85875550703997
 21
148.44828139201127
  0
LINE
  8
_0-7_文字
  6
DASHED1
 62
    7
 10
510.85875550703997
 20
148.44828139201127
 11
511.0187555070396
 21
148.42828139201174
  0
LINE
  8
_0-7_文字
  6
DASHED1
 62
    7
 10
511.0187555070396
 20
148.42828139201174
 11
511.35875550703952
 21
148.36828139201202
  0
LINE
  8
_0-7_文字
  6
DASHED1
 62
    7
 10
511.35875550703952
 20
148.36828139201202
 11
511.53875550703981
 21
148.34828139201136
  0
LINE
  8
_0-7_文字
  6
DASHED1
 62
    7
 10
511.53875550703981
 20
148.34828139201136
 11
511.87875550703973
 21
148.28828139201164
  0
LINE
  8
_0-7_文字
  6
DASHED1
 62
    7
 10
511.87875550703973
 20
148.28828139201164
 11
511.90875550704015
 21
148.30828139201174
  0
LINE
  8
_0-7_文字
  6
DASHED1
 62
    7
 10
511.90875550704015
 20
148.30828139201174
 11
511.92875550703968
 21
148.32828139201183
  0
LINE
  8
_0-7_文字
  6
DASHED1
 62
    7
 10
511.92875550703968
 20
148.32828139201183
 11
512.01875550703983
 21
148.38828139201155
  0
LINE
  8
_0-7_文字
  6
DASHED1
 62
    7
 10
512.01875550703983
 20
148.38828139201155
 11
512.03875550704049
 21
148.40828139201165
  0
LINE
  8
_0-7_文字
  6
DASHED1
 62
    7
 10
512.03875550704049
 20
148.40828139201165
 11
512.09875550704021
 21
148.44828139201127
  0
LINE
  8
_0-7_文字
  6
DASHED1
 62
    7
 10
512.09875550704021
 20
148.44828139201127
 11
512.11875550704031
 21
148.46828139201193
  0
LINE
  8
_0-7_文字
  6
DASHED1
 62
    7
 10
512.11875550704031
 20
148.46828139201193
 11
512.17875550703945
 21
148.50828139201155
  0
LINE
  8
_0-7_文字
  6
DASHED1
 62
    7
 10
512.17875550703945
 20
148.50828139201155
 11
512.21875550704021
 21
148.54828139201118
  0
LINE
  8
_0-7_文字
  6
DASHED1
 62
    7
 10
512.21875550704021
 20
148.54828139201118
 11
512.2487555070395
 21
148.56828139201184
  0
LINE
  8
_0-7_文字
  6
DASHED1
 62
    7
 10
512.2487555070395
 20
148.56828139201184
 11
512.30875550703979
 21
148.62828139201156
  0
LINE
  8
_0-7_文字
  6
DASHED1
 62
    7
 10
512.30875550703979
 20
148.62828139201156
 11
512.32875550703932
 21
148.65828139201142
  0
LINE
  8
_0-7_文字
  6
DASHED1
 62
    7
 10
512.32875550703932
 20
148.65828139201142
 11
512.36875550704008
 21
148.69828139201218
  0
LINE
  8
_0-7_文字
  6
DASHED1
 62
    7
 10
512.36875550704008
 20
148.69828139201218
 11
512.38875550704017
 21
148.72828139201204
  0
LINE
  8
_0-7_文字
  6
DASHED1
 62
    7
 10
512.38875550704017
 20
148.72828139201204
 11
512.40875550704084
 21
148.74828139201213
  0
LINE
  8
_0-7_文字
  6
DASHED1
 62
    7
 10
512.40875550704084
 20
148.74828139201213
 11
512.41875550704003
 21
148.76828139201166
  0
LINE
  8
_0-7_文字
  6
DASHED1
 62
    7
 10
512.41875550704003
 20
148.76828139201166
 11
512.43875550704013
 21
148.79828139201209
  0
LINE
  8
_0-7_文字
  6
DASHED1
 62
    7
 10
512.43875550704013
 20
148.79828139201209
 11
512.44875550703989
 21
148.81828139201161
  0
LINE
  8
_0-7_文字
  6
DASHED1
 62
    7
 10
512.44875550703989
 20
148.81828139201161
 11
512.46875550703999
 21
148.87828139201133
  0
LINE
  8
_0-7_文字
  6
DASHED1
 62
    7
 10
512.46875550703999
 20
148.87828139201133
 11
512.47875550703918
 21
148.898281392012
  0
LINE
  8
_0-7_文字
  6
DASHED1
 62
    7
 10
512.47875550703918
 20
148.898281392012
 11
512.48875550704008
 21
148.92828139201185
  0
LINE
  8
_0-7_文字
  6
DASHED1
 62
    7
 10
512.48875550704008
 20
148.92828139201185
 11
512.48875550704008
 21
148.95828139201171
  0
LINE
  8
_0-7_文字
  6
DASHED1
 62
    7
 10
512.48875550704008
 20
148.95828139201171
 11
512.49875550703985
 21
148.988281392011
  0
LINE
  8
_0-7_文字
  6
DASHED1
 62
    7
 10
512.49875550703985
 20
148.988281392011
 11
512.49875550703985
 21
149.16828139201243
  0
LINE
  8
_0-7_文字
  6
DASHED1
 62
    7
 10
512.49875550703985
 20
149.16828139201243
 11
512.47875550703918
 21
149.22828139201158
  0
LINE
  8
_0-7_文字
  6
DASHED1
 62
    7
 10
512.47875550703918
 20
149.22828139201158
 11
512.46875550703999
 21
149.26828139201234
  0
LINE
  8
_0-7_文字
  6
DASHED1
 62
    7
 10
512.46875550703999
 20
149.26828139201234
 11
512.44875550703989
 21
149.32828139201149
  0
LINE
  8
_0-7_文字
  6
DASHED1
 62
    7
 10
512.44875550703989
 20
149.32828139201149
 11
512.42875550704036
 21
149.35828139201135
  0
LINE
  8
_0-7_文字
  6
DASHED1
 62
    7
 10
512.42875550704036
 20
149.35828139201135
 11
512.41875550704003
 21
149.39828139201154
  0
LINE
  8
_0-7_文字
  6
DASHED1
 62
    7
 10
512.41875550704003
 20
149.39828139201154
 11
512.35875550703975
 21
149.48828139201169
  0
LINE
  8
_0-7_文字
  6
DASHED1
 62
    7
 10
512.35875550703975
 20
149.48828139201169
 11
512.33875550704022
 21
149.52828139201131
  0
LINE
  8
_0-7_文字
  6
DASHED1
 62
    7
 10
512.33875550704022
 20
149.52828139201131
 11
512.30875550703979
 21
149.55828139201117
  0
LINE
  8
_0-7_文字
  6
DASHED1
 62
    7
 10
512.30875550703979
 20
149.55828139201117
 11
512.28875550704026
 21
149.5882813920116
  0
LINE
  8
_0-7_文字
  6
DASHED1
 62
    7
 10
512.28875550704026
 20
149.5882813920116
 11
512.16875550704026
 21
149.70828139201217
  0
LINE
  8
_0-7_文字
  6
DASHED1
 62
    7
 10
512.16875550704026
 20
149.70828139201217
 11
512.08875550704045
 21
149.76828139201189
  0
LINE
  8
_0-7_文字
  6
DASHED1
 62
    7
 10
512.08875550704045
 20
149.76828139201189
 11
512.05875550704002
 21
149.79828139201175
  0
LINE
  8
_0-7_文字
  6
DASHED1
 62
    7
 10
512.05875550704002
 20
149.79828139201175
 11
512.01875550703983
 21
149.8282813920116
  0
LINE
  8
_0-7_文字
  6
DASHED1
 62
    7
 10
512.01875550703983
 20
149.8282813920116
 11
511.96875550704044
 21
149.85828139201089
  0
LINE
  8
_0-7_文字
  6
DASHED1
 62
    7
 10
511.96875550704044
 20
149.85828139201089
 11
511.92875550703968
 21
149.87828139201156
  0
LINE
  8
_0-7_文字
  6
DASHED1
 62
    7
 10
511.92875550703968
 20
149.87828139201156
 11
511.87875550703973
 21
149.90828139201199
  0
LINE
  8
_0-7_文字
  6
DASHED1
 62
    7
 10
511.87875550703973
 20
149.90828139201199
 11
511.83875550704067
 21
149.92828139201151
  0
LINE
  8
_0-7_文字
  6
DASHED1
 62
    7
 10
511.83875550704067
 20
149.92828139201151
 11
511.78875550703958
 21
149.95828139201194
  0
LINE
  8
_0-7_文字
  6
DASHED1
 62
    7
 10
511.78875550703958
 20
149.95828139201194
 11
511.73875550704076
 21
149.97828139201147
  0
LINE
  8
_0-7_文字
  6
DASHED1
 62
    7
 10
511.73875550704076
 20
149.97828139201147
 11
511.67875550703991
 21
150.0082813920119
  0
LINE
  8
_0-7_文字
  6
DASHED1
 62
    7
 10
511.67875550703991
 20
150.0082813920119
 11
511.62875550703995
 21
150.02828139201142
  0
LINE
  8
_0-7_文字
  6
DASHED1
 62
    7
 10
511.62875550703995
 20
150.02828139201142
 11
511.56875550704024
 21
150.04828139201152
  0
LINE
  8
_0-7_文字
  6
DASHED1
 62
    7
 10
511.56875550704024
 20
150.04828139201152
 11
511.51875550704028
 21
150.06828139201161
  0
LINE
  8
_0-7_文字
  6
DASHED1
 62
    7
 10
511.51875550704028
 20
150.06828139201161
 11
511.2787555070397
 21
150.14828139201143
  0
LINE
  8
_0-7_文字
  6
DASHED1
 62
    7
 10
511.2787555070397
 20
150.14828139201143
 11
511.20875550703965
 21
150.16828139201209
  0
LINE
  8
_0-7_文字
  6
DASHED1
 62
    7
 10
511.20875550703965
 20
150.16828139201209
 11
511.14875550703994
 21
150.18828139201219
  0
LINE
  8
_0-7_文字
  6
DASHED1
 62
    7
 10
511.14875550703994
 20
150.18828139201219
 11
511.07875550703989
 21
150.20828139201171
  0
LINE
  8
_0-7_文字
  6
DASHED1
 62
    7
 10
511.07875550703989
 20
150.20828139201171
 11
511.0187555070396
 21
150.22828139201124
  0
LINE
  8
_0-7_文字
  6
DASHED1
 62
    7
 10
511.0187555070396
 20
150.22828139201124
 11
510.94875550704012
 21
150.23828139201214
  0
LINE
  8
_0-7_文字
  6
DASHED1
 62
    7
 10
510.94875550704012
 20
150.23828139201214
 11
510.80875550703945
 21
150.27828139201119
  0
LINE
  8
_0-7_文字
  6
DASHED1
 62
    7
 10
510.80875550703945
 20
150.27828139201119
 11
510.7487555070403
 21
150.2882813920121
  0
LINE
  8
_0-7_文字
  6
DASHED1
 62
    7
 10
510.7487555070403
 20
150.2882813920121
 11
510.67875550704025
 21
150.30828139201162
  0
LINE
  8
_0-7_文字
  6
DASHED1
 62
    7
 10
510.67875550704025
 20
150.30828139201162
 11
510.59875550704044
 21
150.32828139201115
  0
LINE
  8
_0-7_文字
  6
DASHED1
 62
    7
 10
510.59875550704044
 20
150.32828139201115
 11
510.52875550704039
 21
150.33828139201205
  0
LINE
  8
_0-7_文字
  6
DASHED1
 62
    7
 10
510.52875550704039
 20
150.33828139201205
 11
510.45875550703977
 21
150.35828139201158
  0
LINE
  8
_0-7_文字
  6
DASHED1
 62
    7
 10
510.45875550703977
 20
150.35828139201158
 11
510.38875550703972
 21
150.36828139201191
  0
LINE
  8
_0-7_文字
  6
DASHED1
 62
    7
 10
510.38875550703972
 20
150.36828139201191
 11
510.31875550704024
 21
150.388281392012
  0
LINE
  8
_0-7_文字
  6
DASHED1
 62
    7
 10
510.31875550704024
 20
150.388281392012
 11
510.24875550703962
 21
150.3982813920112
  0
LINE
  8
_0-7_文字
  6
DASHED1
 62
    7
 10
510.24875550703962
 20
150.3982813920112
 11
510.16875550703924
 21
150.41828139201186
  0
LINE
  8
_0-7_文字
  6
DASHED1
 62
    7
 10
510.16875550703924
 20
150.41828139201186
 11
510.09875550704089
 21
150.42828139201106
  0
LINE
  8
_0-7_文字
  6
DASHED1
 62
    7
 10
510.09875550704089
 20
150.42828139201106
 11
510.02875550704027
 21
150.44828139201172
  0
LINE
  8
_0-7_文字
  6
DASHED1
 62
    7
 10
507.58875550703999
 20
148.85828139201124
 11
507.61875550704042
 21
148.78828139201119
  0
LINE
  8
_0-7_文字
  6
DASHED1
 62
    7
 10
507.61875550704042
 20
148.78828139201119
 11
507.64875550704028
 21
148.72828139201204
  0
LINE
  8
_0-7_文字
  6
DASHED1
 62
    7
 10
507.64875550704028
 20
148.72828139201204
 11
507.6887555070399
 21
148.66828139201175
  0
LINE
  8
_0-7_文字
  6
DASHED1
 62
    7
 10
507.6887555070399
 20
148.66828139201175
 11
507.9587555070392
 21
148.12828139201201
  0
LINE
  8
_0-7_文字
  6
DASHED1
 62
    7
 10
507.9587555070392
 20
148.12828139201201
 11
507.97875550703986
 21
148.06828139201116
  0
LINE
  8
_0-7_文字
  6
DASHED1
 62
    7
 10
507.97875550703986
 20
148.06828139201116
 11
508.00875550704029
 21
148.00828139201144
  0
LINE
  8
_0-7_文字
  6
DASHED1
 62
    7
 10
508.00875550704029
 20
148.00828139201144
 11
508.02875550703982
 21
147.95828139201205
  0
LINE
  8
_0-7_文字
  6
DASHED1
 62
    7
 10
508.02875550703982
 20
147.95828139201205
 11
508.05875550703911
 21
147.89828139201177
  0
LINE
  8
_0-7_文字
  6
DASHED1
 62
    7
 10
508.05875550703911
 20
147.89828139201177
 11
508.07875550703977
 21
147.83828139201148
  0
LINE
  8
_0-7_文字
  6
DASHED1
 62
    7
 10
508.07875550703977
 20
147.83828139201148
 11
508.11875550704053
 21
147.73828139201157
  0
LINE
  8
_0-7_文字
  6
DASHED1
 62
    7
 10
508.11875550704053
 20
147.73828139201157
 11
508.13875550704063
 21
147.67828139201129
  0
LINE
  8
_0-7_文字
  6
DASHED1
 62
    7
 10
508.13875550704063
 20
147.67828139201129
 11
508.14875550703982
 21
147.62828139201133
  0
LINE
  8
_0-7_文字
  6
DASHED1
 62
    7
 10
508.14875550703982
 20
147.62828139201133
 11
508.16875550703992
 21
147.57828139201138
  0
LINE
  8
_0-7_文字
  6
DASHED1
 62
    7
 10
508.16875550703992
 20
147.57828139201138
 11
508.17875550703968
 21
147.52828139201142
  0
LINE
  8
_0-7_文字
  6
DASHED1
 62
    7
 10
508.17875550703968
 20
147.52828139201142
 11
508.19875550703978
 21
147.47828139201147
  0
LINE
  8
_0-7_文字
  6
DASHED1
 62
    7
 10
508.19875550703978
 20
147.47828139201147
 11
508.20875550704011
 21
147.42828139201151
  0
LINE
  8
_0-7_文字
  6
DASHED1
 62
    7
 10
508.20875550704011
 20
147.42828139201151
 11
508.21875550704044
 21
147.38828139201189
  0
LINE
  8
_0-7_文字
  6
DASHED1
 62
    7
 10
508.21875550704044
 20
147.38828139201189
 11
508.21875550704044
 21
147.33828139201137
  0
LINE
  8
_0-7_文字
  6
DASHED1
 62
    7
 10
508.21875550704044
 20
147.33828139201137
 11
508.22875550703964
 21
147.29828139201118
  0
LINE
  8
_0-7_文字
  6
DASHED1
 62
    7
 10
508.22875550703964
 20
147.29828139201118
 11
508.22875550703964
 21
147.13828139201155
  0
LINE
  8
_0-7_文字
  6
DASHED1
 62
    7
 10
508.22875550703964
 20
147.13828139201155
 11
508.21875550704044
 21
147.09828139201136
  0
LINE
  8
_0-7_文字
  6
DASHED1
 62
    7
 10
508.21875550704044
 20
147.09828139201136
 11
508.21875550704044
 21
147.0582813920123
  0
LINE
  8
_0-7_文字
  6
DASHED1
 62
    7
 10
508.21875550704044
 20
147.0582813920123
 11
508.20875550704011
 21
147.02828139201188
  0
LINE
  8
_0-7_文字
  6
DASHED1
 62
    7
 10
508.20875550704011
 20
147.02828139201188
 11
508.19875550703978
 21
146.98828139201169
  0
LINE
  8
_0-7_文字
  6
DASHED1
 62
    7
 10
508.19875550703978
 20
146.98828139201169
 11
508.17875550703968
 21
146.9582813920124
  0
LINE
  8
_0-7_文字
  6
DASHED1
 62
    7
 10
508.17875550703968
 20
146.9582813920124
 11
508.16875550703992
 21
146.92828139201197
  0
LINE
  8
_0-7_文字
  6
DASHED1
 62
    7
 10
508.16875550703992
 20
146.92828139201197
 11
508.14875550703982
 21
146.89828139201154
  0
LINE
  8
_0-7_文字
  6
DASHED1
 62
    7
 10
508.14875550703982
 20
146.89828139201154
 11
508.13875550704063
 21
146.86828139201168
  0
LINE
  8
_0-7_文字
  6
DASHED1
 62
    7
 10
508.13875550704063
 20
146.86828139201168
 11
508.07875550703977
 21
146.77828139201097
  0
LINE
  8
_0-7_文字
  6
DASHED1
 62
    7
 10
508.07875550703977
 20
146.77828139201097
 11
507.9587555070392
 21
146.65828139201153
  0
LINE
  8
_0-7_文字
  6
DASHED1
 62
    7
 10
507.9587555070392
 20
146.65828139201153
 11
507.89875550704005
 21
146.61828139201191
  0
LINE
  8
_0-7_文字
  6
DASHED1
 62
    7
 10
507.89875550704005
 20
146.61828139201191
 11
507.86875550704019
 21
146.58828139201205
  0
LINE
  8
_0-7_文字
  6
DASHED1
 62
    7
 10
507.86875550704019
 20
146.58828139201205
 11
507.6887555070399
 21
146.46828139201148
  0
LINE
  8
_0-7_文字
  6
DASHED1
 62
    7
 10
507.6887555070399
 20
146.46828139201148
 11
507.64875550704028
 21
146.44828139201138
  0
LINE
  8
_0-7_文字
  6
DASHED1
 62
    7
 10
507.64875550704028
 20
146.44828139201138
 11
507.58875550703999
 21
146.40828139201176
  0
LINE
  8
_0-7_文字
  6
DASHED1
 62
    7
 10
507.58875550703999
 20
150.40828139201153
 11
521.18875550704013
 21
150.40828139201153
  0
LINE
  8
_0-7_文字
  6
DASHED1
 62
    7
 10
507.58875550703999
 20
146.40828139201176
 11
521.18875550704013
 21
146.40828139201176
  0
LINE
  8
_0-7_文字
  6
DASHED1
 62
    7
 10
522.58875550703999
 20
145.40828139201153
 11
522.58875550703999
 21
151.40828139201176
  0
LINE
  8
_0-7_文字
  6
DASHED1
 62
    7
 10
522.58875550703999
 20
145.40828139201153
 11
522.33875550704022
 21
145.40828139201153
  0
LINE
  8
_0-7_文字
  6
DASHED1
 62
    7
 10
522.33875550704022
 20
151.40828139201176
 11
522.33875550704022
 21
145.40828139201153
  0
LINE
  8
_0-7_文字
  6
DASHED1
 62
    7
 10
522.58875550703999
 20
151.40828139201176
 11
522.33875550704022
 21
151.40828139201176
  0
LINE
  8
_0-7_文字
  6
DASHED1
 62
    7
 10
522.33875550704022
 20
145.40828139201153
 11
521.18875550704013
 21
146.40828139201176
  0
LINE
  8
_0-7_文字
  6
DASHED1
 62
    7
 10
522.33875550704022
 20
151.40828139201176
 11
521.18875550704013
 21
150.40828139201153
  0
LINE
  8
_0-7_文字
  6
DASHED1
 62
    7
 10
521.18875550704013
 20
146.40828139201176
 11
521.18875550704013
 21
150.40828139201153
  0
LINE
  8
_0-7_文字
  6
CENTER1
 62
    7
 10
518.55507033551532
 20
250.48112515527788
 11
527.24076502091123
 21
250.48112515527788
  0
LINE
  8
_0-7_文字
  6
DASHED1
 62
    7
 10
507.58875550703999
 20
252.48112515527777
 11
506.58875550703976
 21
250.48112515527788
  0
LINE
  8
_0-7_文字
  6
DASHED1
 62
    7
 10
506.58875550703976
 20
250.48112515527788
 11
507.58875550703999
 21
248.48112515527799
  0
LINE
  8
_0-7_文字
  6
DASHED1
 62
    7
 10
506.58875550703976
 20
250.48112515527788
 11
506.58875550703976
 21
250.50112515527798
  0
LINE
  8
_0-7_文字
  6
DASHED1
 62
    7
 10
506.58875550703976
 20
250.50112515527798
 11
506.59875550704066
 21
250.53112515527783
  0
LINE
  8
_0-7_文字
  6
DASHED1
 62
    7
 10
506.59875550704066
 20
250.53112515527783
 11
506.59875550704066
 21
250.55112515527793
  0
LINE
  8
_0-7_文字
  6
DASHED1
 62
    7
 10
506.59875550704066
 20
250.55112515527793
 11
506.60875550703986
 21
250.57112515527859
  0
LINE
  8
_0-7_文字
  6
DASHED1
 62
    7
 10
506.60875550703986
 20
250.57112515527859
 11
506.61875550704019
 21
250.60112515527788
  0
LINE
  8
_0-7_文字
  6
DASHED1
 62
    7
 10
506.61875550704019
 20
250.60112515527788
 11
506.61875550704019
 21
250.62112515527741
  0
LINE
  8
_0-7_文字
  6
DASHED1
 62
    7
 10
506.61875550704019
 20
250.62112515527741
 11
506.63875550703972
 21
250.6611251552776
  0
LINE
  8
_0-7_文字
  6
DASHED1
 62
    7
 10
506.63875550703972
 20
250.6611251552776
 11
506.65875550703981
 21
250.6811251552777
  0
LINE
  8
_0-7_文字
  6
DASHED1
 62
    7
 10
506.65875550703981
 20
250.6811251552777
 11
506.67875550704048
 21
250.72112515527732
  0
LINE
  8
_0-7_文字
  6
DASHED1
 62
    7
 10
506.67875550704048
 20
250.72112515527732
 11
506.75875550703972
 21
250.80112515527827
  0
LINE
  8
_0-7_文字
  6
DASHED1
 62
    7
 10
506.75875550703972
 20
250.80112515527827
 11
506.78875550703958
 21
250.81112515527747
  0
LINE
  8
_0-7_文字
  6
DASHED1
 62
    7
 10
506.78875550703958
 20
250.81112515527747
 11
506.84875550704044
 21
250.85112515527766
  0
LINE
  8
_0-7_文字
  6
DASHED1
 62
    7
 10
506.84875550704044
 20
250.85112515527766
 11
506.96875550703987
 21
250.88112515527808
  0
LINE
  8
_0-7_文字
  6
DASHED1
 62
    7
 10
506.96875550703987
 20
250.88112515527808
 11
507.06875550703978
 21
250.90112515527818
  0
LINE
  8
_0-7_文字
  6
DASHED1
 62
    7
 10
507.06875550703978
 20
250.90112515527818
 11
507.18875550703922
 21
250.92112515527828
  0
LINE
  8
_0-7_文字
  6
DASHED1
 62
    7
 10
507.18875550703922
 20
250.92112515527828
 11
507.25875550703984
 21
250.92112515527828
  0
LINE
  8
_0-7_文字
  6
DASHED1
 62
    7
 10
507.25875550703984
 20
250.92112515527828
 11
507.32875550703989
 21
250.93112515527747
  0
LINE
  8
_0-7_文字
  6
DASHED1
 62
    7
 10
507.32875550703989
 20
250.93112515527747
 11
507.56875550704046
 21
250.93112515527747
  0
LINE
  8
_0-7_文字
  6
DASHED1
 62
    7
 10
507.56875550704046
 20
250.93112515527747
 11
507.65875550703947
 21
250.92112515527828
  0
LINE
  8
_0-7_文字
  6
DASHED1
 62
    7
 10
507.65875550703947
 20
250.92112515527828
 11
507.74875550704019
 21
250.92112515527828
  0
LINE
  8
_0-7_文字
  6
DASHED1
 62
    7
 10
507.74875550704019
 20
250.92112515527828
 11
507.8487555070401
 21
250.91112515527738
  0
LINE
  8
_0-7_文字
  6
DASHED1
 62
    7
 10
507.8487555070401
 20
250.91112515527738
 11
507.9587555070392
 21
250.91112515527738
  0
LINE
  8
_0-7_文字
  6
DASHED1
 62
    7
 10
507.9587555070392
 20
250.91112515527738
 11
508.06875550704001
 21
250.90112515527818
  0
LINE
  8
_0-7_文字
  6
DASHED1
 62
    7
 10
508.06875550704001
 20
250.90112515527818
 11
508.18875550704058
 21
250.89112515527785
  0
LINE
  8
_0-7_文字
  6
DASHED1
 62
    7
 10
508.18875550704058
 20
250.89112515527785
 11
508.30875550704002
 21
250.87112515527832
  0
LINE
  8
_0-7_文字
  6
DASHED1
 62
    7
 10
508.30875550704002
 20
250.87112515527832
 11
508.42875550703945
 21
250.86112515527742
  0
LINE
  8
_0-7_文字
  6
DASHED1
 62
    7
 10
508.42875550703945
 20
250.86112515527742
 11
508.55875550703979
 21
250.85112515527766
  0
LINE
  8
_0-7_文字
  6
DASHED1
 62
    7
 10
508.55875550703979
 20
250.85112515527766
 11
508.68875550704013
 21
250.83112515527756
  0
LINE
  8
_0-7_文字
  6
DASHED1
 62
    7
 10
508.68875550704013
 20
250.83112515527756
 11
508.82875550703909
 21
250.82112515527837
  0
LINE
  8
_0-7_文字
  6
DASHED1
 62
    7
 10
508.82875550703909
 20
250.82112515527837
 11
509.10875550704043
 21
250.78112515527818
  0
LINE
  8
_0-7_文字
  6
DASHED1
 62
    7
 10
509.10875550704043
 20
250.78112515527818
 11
509.55875550704002
 21
250.72112515527732
  0
LINE
  8
_0-7_文字
  6
DASHED1
 62
    7
 10
509.55875550704002
 20
250.72112515527732
 11
509.71875550703965
 21
250.70112515527779
  0
LINE
  8
_0-7_文字
  6
DASHED1
 62
    7
 10
509.71875550703965
 20
250.70112515527779
 11
509.86875550703951
 21
250.6711251552785
  0
LINE
  8
_0-7_文字
  6
DASHED1
 62
    7
 10
509.86875550703951
 20
250.6711251552785
 11
510.1887555070399
 21
250.63112515527774
  0
LINE
  8
_0-7_文字
  6
DASHED1
 62
    7
 10
510.1887555070399
 20
250.63112515527774
 11
510.35875550703986
 21
250.60112515527788
  0
LINE
  8
_0-7_文字
  6
DASHED1
 62
    7
 10
510.35875550703986
 20
250.60112515527788
 11
510.51875550704005
 21
250.58112515527779
  0
LINE
  8
_0-7_文字
  6
DASHED1
 62
    7
 10
510.51875550704005
 20
250.58112515527779
 11
510.85875550703997
 21
250.5211251552775
  0
LINE
  8
_0-7_文字
  6
DASHED1
 62
    7
 10
510.85875550703997
 20
250.5211251552775
 11
511.0187555070396
 21
250.50112515527798
  0
LINE
  8
_0-7_文字
  6
DASHED1
 62
    7
 10
511.0187555070396
 20
250.50112515527798
 11
511.35875550703952
 21
250.44112515527826
  0
LINE
  8
_0-7_文字
  6
DASHED1
 62
    7
 10
511.35875550703952
 20
250.44112515527826
 11
511.53875550703981
 21
250.42112515527759
  0
LINE
  8
_0-7_文字
  6
DASHED1
 62
    7
 10
511.53875550703981
 20
250.42112515527759
 11
511.87875550703973
 21
250.36112515527788
  0
LINE
  8
_0-7_文字
  6
DASHED1
 62
    7
 10
511.87875550703973
 20
250.36112515527788
 11
511.90875550704015
 21
250.38112515527797
  0
LINE
  8
_0-7_文字
  6
DASHED1
 62
    7
 10
511.90875550704015
 20
250.38112515527797
 11
511.92875550703968
 21
250.40112515527807
  0
LINE
  8
_0-7_文字
  6
DASHED1
 62
    7
 10
511.92875550703968
 20
250.40112515527807
 11
512.01875550703983
 21
250.46112515527778
  0
LINE
  8
_0-7_文字
  6
DASHED1
 62
    7
 10
512.01875550703983
 20
250.46112515527778
 11
512.03875550704049
 21
250.48112515527788
  0
LINE
  8
_0-7_文字
  6
DASHED1
 62
    7
 10
512.03875550704049
 20
250.48112515527788
 11
512.09875550704021
 21
250.5211251552775
  0
LINE
  8
_0-7_文字
  6
DASHED1
 62
    7
 10
512.09875550704021
 20
250.5211251552775
 11
512.11875550704031
 21
250.54112515527817
  0
LINE
  8
_0-7_文字
  6
DASHED1
 62
    7
 10
512.11875550704031
 20
250.54112515527817
 11
512.17875550703945
 21
250.58112515527779
  0
LINE
  8
_0-7_文字
  6
DASHED1
 62
    7
 10
512.17875550703945
 20
250.58112515527779
 11
512.21875550704021
 21
250.62112515527741
  0
LINE
  8
_0-7_文字
  6
DASHED1
 62
    7
 10
512.21875550704021
 20
250.62112515527741
 11
512.2487555070395
 21
250.64112515527808
  0
LINE
  8
_0-7_文字
  6
DASHED1
 62
    7
 10
512.2487555070395
 20
250.64112515527808
 11
512.30875550703979
 21
250.70112515527779
  0
LINE
  8
_0-7_文字
  6
DASHED1
 62
    7
 10
512.30875550703979
 20
250.70112515527779
 11
512.32875550703932
 21
250.73112515527765
  0
LINE
  8
_0-7_文字
  6
DASHED1
 62
    7
 10
512.32875550703932
 20
250.73112515527765
 11
512.36875550704008
 21
250.77112515527841
  0
LINE
  8
_0-7_文字
  6
DASHED1
 62
    7
 10
512.36875550704008
 20
250.77112515527841
 11
512.38875550704017
 21
250.80112515527827
  0
LINE
  8
_0-7_文字
  6
DASHED1
 62
    7
 10
512.38875550704017
 20
250.80112515527827
 11
512.40875550704084
 21
250.82112515527837
  0
LINE
  8
_0-7_文字
  6
DASHED1
 62
    7
 10
512.40875550704084
 20
250.82112515527837
 11
512.41875550704003
 21
250.84112515527789
  0
LINE
  8
_0-7_文字
  6
DASHED1
 62
    7
 10
512.41875550704003
 20
250.84112515527789
 11
512.43875550704013
 21
250.87112515527832
  0
LINE
  8
_0-7_文字
  6
DASHED1
 62
    7
 10
512.43875550704013
 20
250.87112515527832
 11
512.44875550703989
 21
250.89112515527785
  0
LINE
  8
_0-7_文字
  6
DASHED1
 62
    7
 10
512.44875550703989
 20
250.89112515527785
 11
512.46875550703999
 21
250.95112515527757
  0
LINE
  8
_0-7_文字
  6
DASHED1
 62
    7
 10
512.46875550703999
 20
250.95112515527757
 11
512.47875550703918
 21
250.97112515527823
  0
LINE
  8
_0-7_文字
  6
DASHED1
 62
    7
 10
512.47875550703918
 20
250.97112515527823
 11
512.48875550704008
 21
251.00112515527809
  0
LINE
  8
_0-7_文字
  6
DASHED1
 62
    7
 10
512.48875550704008
 20
251.00112515527809
 11
512.48875550704008
 21
251.03112515527795
  0
LINE
  8
_0-7_文字
  6
DASHED1
 62
    7
 10
512.48875550704008
 20
251.03112515527795
 11
512.49875550703985
 21
251.06112515527724
  0
LINE
  8
_0-7_文字
  6
DASHED1
 62
    7
 10
512.49875550703985
 20
251.06112515527724
 11
512.49875550703985
 21
251.24112515527867
  0
LINE
  8
_0-7_文字
  6
DASHED1
 62
    7
 10
512.49875550703985
 20
251.24112515527867
 11
512.47875550703918
 21
251.30112515527782
  0
LINE
  8
_0-7_文字
  6
DASHED1
 62
    7
 10
512.47875550703918
 20
251.30112515527782
 11
512.46875550703999
 21
251.34112515527858
  0
LINE
  8
_0-7_文字
  6
DASHED1
 62
    7
 10
512.46875550703999
 20
251.34112515527858
 11
512.44875550703989
 21
251.40112515527773
  0
LINE
  8
_0-7_文字
  6
DASHED1
 62
    7
 10
512.44875550703989
 20
251.40112515527773
 11
512.42875550704036
 21
251.43112515527758
  0
LINE
  8
_0-7_文字
  6
DASHED1
 62
    7
 10
512.42875550704036
 20
251.43112515527758
 11
512.41875550704003
 21
251.47112515527778
  0
LINE
  8
_0-7_文字
  6
DASHED1
 62
    7
 10
512.41875550704003
 20
251.47112515527778
 11
512.35875550703975
 21
251.56112515527792
  0
LINE
  8
_0-7_文字
  6
DASHED1
 62
    7
 10
512.35875550703975
 20
251.56112515527792
 11
512.33875550704022
 21
251.60112515527754
  0
LINE
  8
_0-7_文字
  6
DASHED1
 62
    7
 10
512.33875550704022
 20
251.60112515527754
 11
512.30875550703979
 21
251.6311251552774
  0
LINE
  8
_0-7_文字
  6
DASHED1
 62
    7
 10
512.30875550703979
 20
251.6311251552774
 11
512.28875550704026
 21
251.66112515527783
  0
LINE
  8
_0-7_文字
  6
DASHED1
 62
    7
 10
512.28875550704026
 20
251.66112515527783
 11
512.16875550704026
 21
251.7811251552784
  0
LINE
  8
_0-7_文字
  6
DASHED1
 62
    7
 10
512.16875550704026
 20
251.7811251552784
 11
512.08875550704045
 21
251.84112515527812
  0
LINE
  8
_0-7_文字
  6
DASHED1
 62
    7
 10
512.08875550704045
 20
251.84112515527812
 11
512.05875550704002
 21
251.87112515527798
  0
LINE
  8
_0-7_文字
  6
DASHED1
 62
    7
 10
512.05875550704002
 20
251.87112515527798
 11
512.01875550703983
 21
251.90112515527784
  0
LINE
  8
_0-7_文字
  6
DASHED1
 62
    7
 10
512.01875550703983
 20
251.90112515527784
 11
511.96875550704044
 21
251.93112515527713
  0
LINE
  8
_0-7_文字
  6
DASHED1
 62
    7
 10
511.96875550704044
 20
251.93112515527713
 11
511.92875550703968
 21
251.95112515527779
  0
LINE
  8
_0-7_文字
  6
DASHED1
 62
    7
 10
511.92875550703968
 20
251.95112515527779
 11
511.87875550703973
 21
251.98112515527822
  0
LINE
  8
_0-7_文字
  6
DASHED1
 62
    7
 10
511.87875550703973
 20
251.98112515527822
 11
511.83875550704067
 21
252.00112515527775
  0
LINE
  8
_0-7_文字
  6
DASHED1
 62
    7
 10
511.83875550704067
 20
252.00112515527775
 11
511.78875550703958
 21
252.03112515527818
  0
LINE
  8
_0-7_文字
  6
DASHED1
 62
    7
 10
511.78875550703958
 20
252.03112515527818
 11
511.73875550704076
 21
252.0511251552777
  0
LINE
  8
_0-7_文字
  6
DASHED1
 62
    7
 10
511.73875550704076
 20
252.0511251552777
 11
511.67875550703991
 21
252.08112515527813
  0
LINE
  8
_0-7_文字
  6
DASHED1
 62
    7
 10
511.67875550703991
 20
252.08112515527813
 11
511.62875550703995
 21
252.10112515527766
  0
LINE
  8
_0-7_文字
  6
DASHED1
 62
    7
 10
511.62875550703995
 20
252.10112515527766
 11
511.56875550704024
 21
252.12112515527775
  0
LINE
  8
_0-7_文字
  6
DASHED1
 62
    7
 10
511.56875550704024
 20
252.12112515527775
 11
511.51875550704028
 21
252.14112515527785
  0
LINE
  8
_0-7_文字
  6
DASHED1
 62
    7
 10
511.51875550704028
 20
252.14112515527785
 11
511.2787555070397
 21
252.22112515527766
  0
LINE
  8
_0-7_文字
  6
DASHED1
 62
    7
 10
511.2787555070397
 20
252.22112515527766
 11
511.20875550703965
 21
252.24112515527833
  0
LINE
  8
_0-7_文字
  6
DASHED1
 62
    7
 10
511.20875550703965
 20
252.24112515527833
 11
511.14875550703994
 21
252.26112515527842
  0
LINE
  8
_0-7_文字
  6
DASHED1
 62
    7
 10
511.14875550703994
 20
252.26112515527842
 11
511.07875550703989
 21
252.28112515527795
  0
LINE
  8
_0-7_文字
  6
DASHED1
 62
    7
 10
511.07875550703989
 20
252.28112515527795
 11
511.0187555070396
 21
252.30112515527748
  0
LINE
  8
_0-7_文字
  6
DASHED1
 62
    7
 10
511.0187555070396
 20
252.30112515527748
 11
510.94875550704012
 21
252.31112515527838
  0
LINE
  8
_0-7_文字
  6
DASHED1
 62
    7
 10
510.94875550704012
 20
252.31112515527838
 11
510.80875550703945
 21
252.35112515527743
  0
LINE
  8
_0-7_文字
  6
DASHED1
 62
    7
 10
510.80875550703945
 20
252.35112515527743
 11
510.7487555070403
 21
252.36112515527833
  0
LINE
  8
_0-7_文字
  6
DASHED1
 62
    7
 10
510.7487555070403
 20
252.36112515527833
 11
510.67875550704025
 21
252.38112515527786
  0
LINE
  8
_0-7_文字
  6
DASHED1
 62
    7
 10
510.67875550704025
 20
252.38112515527786
 11
510.59875550704044
 21
252.40112515527738
  0
LINE
  8
_0-7_文字
  6
DASHED1
 62
    7
 10
510.59875550704044
 20
252.40112515527738
 11
510.52875550704039
 21
252.41112515527828
  0
LINE
  8
_0-7_文字
  6
DASHED1
 62
    7
 10
510.52875550704039
 20
252.41112515527828
 11
510.45875550703977
 21
252.43112515527781
  0
LINE
  8
_0-7_文字
  6
DASHED1
 62
    7
 10
510.45875550703977
 20
252.43112515527781
 11
510.38875550703972
 21
252.44112515527814
  0
LINE
  8
_0-7_文字
  6
DASHED1
 62
    7
 10
510.38875550703972
 20
252.44112515527814
 11
510.31875550704024
 21
252.46112515527824
  0
LINE
  8
_0-7_文字
  6
DASHED1
 62
    7
 10
510.31875550704024
 20
252.46112515527824
 11
510.24875550703962
 21
252.47112515527743
  0
LINE
  8
_0-7_文字
  6
DASHED1
 62
    7
 10
510.24875550703962
 20
252.47112515527743
 11
510.16875550703924
 21
252.4911251552781
  0
LINE
  8
_0-7_文字
  6
DASHED1
 62
    7
 10
510.16875550703924
 20
252.4911251552781
 11
510.09875550704089
 21
252.50112515527729
  0
LINE
  8
_0-7_文字
  6
DASHED1
 62
    7
 10
510.09875550704089
 20
252.50112515527729
 11
510.02875550704027
 21
252.52112515527796
  0
LINE
  8
_0-7_文字
  6
DASHED1
 62
    7
 10
507.58875550703999
 20
250.93112515527747
 11
507.61875550704042
 21
250.86112515527742
  0
LINE
  8
_0-7_文字
  6
DASHED1
 62
    7
 10
507.61875550704042
 20
250.86112515527742
 11
507.64875550704028
 21
250.80112515527827
  0
LINE
  8
_0-7_文字
  6
DASHED1
 62
    7
 10
507.64875550704028
 20
250.80112515527827
 11
507.6887555070399
 21
250.74112515527798
  0
LINE
  8
_0-7_文字
  6
DASHED1
 62
    7
 10
507.6887555070399
 20
250.74112515527798
 11
507.9587555070392
 21
250.20112515527825
  0
LINE
  8
_0-7_文字
  6
DASHED1
 62
    7
 10
507.9587555070392
 20
250.20112515527825
 11
507.97875550703986
 21
250.14112515527739
  0
LINE
  8
_0-7_文字
  6
DASHED1
 62
    7
 10
507.97875550703986
 20
250.14112515527739
 11
508.00875550704029
 21
250.08112515527768
  0
LINE
  8
_0-7_文字
  6
DASHED1
 62
    7
 10
508.00875550704029
 20
250.08112515527768
 11
508.02875550703982
 21
250.03112515527829
  0
LINE
  8
_0-7_文字
  6
DASHED1
 62
    7
 10
508.02875550703982
 20
250.03112515527829
 11
508.05875550703911
 21
249.971125155278
  0
LINE
  8
_0-7_文字
  6
DASHED1
 62
    7
 10
508.05875550703911
 20
249.971125155278
 11
508.07875550703977
 21
249.91112515527772
  0
LINE
  8
_0-7_文字
  6
DASHED1
 62
    7
 10
508.07875550703977
 20
249.91112515527772
 11
508.11875550704053
 21
249.81112515527781
  0
LINE
  8
_0-7_文字
  6
DASHED1
 62
    7
 10
508.11875550704053
 20
249.81112515527781
 11
508.13875550704063
 21
249.75112515527752
  0
LINE
  8
_0-7_文字
  6
DASHED1
 62
    7
 10
508.13875550704063
 20
249.75112515527752
 11
508.14875550703982
 21
249.70112515527757
  0
LINE
  8
_0-7_文字
  6
DASHED1
 62
    7
 10
508.14875550703982
 20
249.70112515527757
 11
508.16875550703992
 21
249.65112515527761
  0
LINE
  8
_0-7_文字
  6
DASHED1
 62
    7
 10
508.16875550703992
 20
249.65112515527761
 11
508.17875550703968
 21
249.60112515527766
  0
LINE
  8
_0-7_文字
  6
DASHED1
 62
    7
 10
508.17875550703968
 20
249.60112515527766
 11
508.19875550703978
 21
249.5511251552777
  0
LINE
  8
_0-7_文字
  6
DASHED1
 62
    7
 10
508.19875550703978
 20
249.5511251552777
 11
508.20875550704011
 21
249.50112515527775
  0
LINE
  8
_0-7_文字
  6
DASHED1
 62
    7
 10
508.20875550704011
 20
249.50112515527775
 11
508.21875550704044
 21
249.46112515527813
  0
LINE
  8
_0-7_文字
  6
DASHED1
 62
    7
 10
508.21875550704044
 20
249.46112515527813
 11
508.21875550704044
 21
249.4111251552776
  0
LINE
  8
_0-7_文字
  6
DASHED1
 62
    7
 10
508.21875550704044
 20
249.4111251552776
 11
508.22875550703964
 21
249.37112515527741
  0
LINE
  8
_0-7_文字
  6
DASHED1
 62
    7
 10
508.22875550703964
 20
249.37112515527741
 11
508.22875550703964
 21
249.21112515527778
  0
LINE
  8
_0-7_文字
  6
DASHED1
 62
    7
 10
508.22875550703964
 20
249.21112515527778
 11
508.21875550704044
 21
249.17112515527759
  0
LINE
  8
_0-7_文字
  6
DASHED1
 62
    7
 10
508.21875550704044
 20
249.17112515527759
 11
508.21875550704044
 21
249.13112515527854
  0
LINE
  8
_0-7_文字
  6
DASHED1
 62
    7
 10
508.21875550704044
 20
249.13112515527854
 11
508.20875550704011
 21
249.10112515527811
  0
LINE
  8
_0-7_文字
  6
DASHED1
 62
    7
 10
508.20875550704011
 20
249.10112515527811
 11
508.19875550703978
 21
249.06112515527792
  0
LINE
  8
_0-7_文字
  6
DASHED1
 62
    7
 10
508.19875550703978
 20
249.06112515527792
 11
508.17875550703968
 21
249.03112515527863
  0
LINE
  8
_0-7_文字
  6
DASHED1
 62
    7
 10
508.17875550703968
 20
249.03112515527863
 11
508.16875550703992
 21
249.0011251552782
  0
LINE
  8
_0-7_文字
  6
DASHED1
 62
    7
 10
508.16875550703992
 20
249.0011251552782
 11
508.14875550703982
 21
248.97112515527778
  0
LINE
  8
_0-7_文字
  6
DASHED1
 62
    7
 10
508.14875550703982
 20
248.97112515527778
 11
508.13875550704063
 21
248.94112515527792
  0
LINE
  8
_0-7_文字
  6
DASHED1
 62
    7
 10
508.13875550704063
 20
248.94112515527792
 11
508.07875550703977
 21
248.8511251552772
  0
LINE
  8
_0-7_文字
  6
DASHED1
 62
    7
 10
508.07875550703977
 20
248.8511251552772
 11
507.9587555070392
 21
248.73112515527777
  0
LINE
  8
_0-7_文字
  6
DASHED1
 62
    7
 10
507.9587555070392
 20
248.73112515527777
 11
507.89875550704005
 21
248.69112515527814
  0
LINE
  8
_0-7_文字
  6
DASHED1
 62
    7
 10
507.89875550704005
 20
248.69112515527814
 11
507.86875550704019
 21
248.66112515527828
  0
LINE
  8
_0-7_文字
  6
DASHED1
 62
    7
 10
507.86875550704019
 20
248.66112515527828
 11
507.6887555070399
 21
248.54112515527771
  0
LINE
  8
_0-7_文字
  6
DASHED1
 62
    7
 10
507.6887555070399
 20
248.54112515527771
 11
507.64875550704028
 21
248.52112515527762
  0
LINE
  8
_0-7_文字
  6
DASHED1
 62
    7
 10
507.64875550704028
 20
248.52112515527762
 11
507.58875550703999
 21
248.48112515527799
  0
LINE
  8
_0-7_文字
  6
DASHED1
 62
    7
 10
507.58875550703999
 20
252.48112515527777
 11
521.18875550704013
 21
252.48112515527777
  0
LINE
  8
_0-7_文字
  6
DASHED1
 62
    7
 10
507.58875550703999
 20
248.48112515527799
 11
521.18875550704013
 21
248.48112515527799
  0
LINE
  8
_0-7_文字
  6
DASHED1
 62
    7
 10
522.58875550703999
 20
247.48112515527777
 11
522.58875550703999
 21
253.48112515527799
  0
LINE
  8
_0-7_文字
  6
DASHED1
 62
    7
 10
522.58875550703999
 20
247.48112515527777
 11
522.33875550704022
 21
247.48112515527777
  0
LINE
  8
_0-7_文字
  6
DASHED1
 62
    7
 10
522.33875550704022
 20
253.48112515527799
 11
522.33875550704022
 21
247.48112515527777
  0
LINE
  8
_0-7_文字
  6
DASHED1
 62
    7
 10
522.58875550703999
 20
253.48112515527799
 11
522.33875550704022
 21
253.48112515527799
  0
LINE
  8
_0-7_文字
  6
DASHED1
 62
    7
 10
522.33875550704022
 20
247.48112515527777
 11
521.18875550704013
 21
248.48112515527799
  0
LINE
  8
_0-7_文字
  6
DASHED1
 62
    7
 10
522.33875550704022
 20
253.48112515527799
 11
521.18875550704013
 21
252.48112515527777
  0
LINE
  8
_0-7_文字
  6
DASHED1
 62
    7
 10
521.18875550704013
 20
248.48112515527799
 11
521.18875550704013
 21
252.48112515527777
  0
LINE
  8
_0-2_製品
  6
CONTINUOUS
 62
   83
 10
78.587226424285916
 20
143.68342923546328
 11
78.587226424285916
 21
185.33315001820083
  0
LINE
  8
_0-2_製品
  6
CONTINUOUS
 62
   83
 10
78.674907665153057
 20
214.10221367484422
 11
191.63578164512904
 21
327.06308765482015
  0
LINE
  8
_0-2_製品
  6
CONTINUOUS
 62
   83
 10
109.1008639314727
 20
171.48007964661889
 11
95.928454547461058
 21
158.30767026260719
  0
LINE
  8
_0-2_製品
  6
CONTINUOUS
 62
   83
 10
95.504190478749081
 20
158.30767026260725
 11
94.797083697562528
 21
159.0147770437938
  0
LINE
  8
_0-2_製品
  6
CONTINUOUS
 62
   83
 10
94.089976916376088
 20
159.0147770437938
 11
93.029316744596201
 21
157.95411687201397
  0
LINE
  8
_0-2_製品
  6
CONTINUOUS
 62
   83
 10
93.029316744596201
 20
157.95411687201397
 11
93.11190681663885
 21
157.5145792968284
  0
LINE
  8
_0-2_製品
  6
CONTINUOUS
 62
   83
 10
92.761606117238955
 20
157.16427859742862
 11
92.322209963409648
 21
157.24701009082742
  0
LINE
  8
_0-2_製品
  6
CONTINUOUS
 62
   83
 10
92.322209963409648
 20
157.24701009082742
 11
91.261549791629875
 21
156.18634991904759
  0
LINE
  8
_0-2_製品
  6
CONTINUOUS
 62
   83
 10
91.261549791629875
 20
155.47924313786103
 11
91.968656572816428
 21
154.77213635667448
  0
LINE
  8
_0-2_製品
  6
CONTINUOUS
 62
   83
 10
91.968656572816428
 20
154.34787228796256
 11
87.39212006362078
 21
149.77133577876702
  0
LINE
  8
_0-2_製品
  6
CONTINUOUS
 62
   83
 10
81.78716745186756
 20
152.15188146830963
 11
81.78716745186756
 21
178.08318419069516
  0
LINE
  8
_0-2_製品
  6
CONTINUOUS
 62
   83
 10
82.087122148446895
 20
178.38313888727453
 11
92.087026247987126
 21
178.38313888727453
  0
LINE
  8
_0-2_製品
  6
CONTINUOUS
 62
   83
 10
94.087007067895058
 20
180.38311970718249
 11
94.087148489251319
 21
186.1936989709049
  0
LINE
  8
_0-2_製品
  6
CONTINUOUS
 62
   83
 10
94.599376641542847
 20
186.40583100526084
 11
109.10086393147282
 21
171.90434371533087
  0
LINE
  8
_0-2_製品
  6
CONTINUOUS
 62
   83
 10
149.96795892879305
 20
227.48661367185565
 11
159.58828810819222
 21
217.86628449245643
  0
LINE
  8
_0-2_製品
  6
CONTINUOUS
 62
   83
 10
159.58828810819233
 20
217.44202042374454
 11
152.94148436503878
 21
210.79521668059101
  0
LINE
  8
_0-2_製品
  6
CONTINUOUS
 62
   83
 10
152.5172202963268
 20
210.79521668059095
 11
151.17371741207234
 21
212.13871956484539
  0
LINE
  8
_0-2_製品
  6
CONTINUOUS
 62
   83
 10
151.17371741207234
 20
212.56298363355739
 11
155.55777945542894
 21
216.94704567691394
  0
LINE
  8
_0-2_製品
  6
CONTINUOUS
 62
   83
 10
155.55777945542894
 20
217.37130974562592
 11
148.63195137641918
 21
224.29713782463566
  0
LINE
  8
_0-2_製品
  6
CONTINUOUS
 62
   83
 10
118.25945238275727
 20
249.16127499285449
 11
81.874990114090963
 21
212.77681272418815
  0
LINE
  8
_0-2_製品
  6
CONTINUOUS
 62
   83
 10
81.787308873223822
 20
212.56468068983222
 11
81.78716745186756
 21
203.68299525406047
  0
LINE
  8
_0-2_製品
  6
CONTINUOUS
 62
   83
 10
82.087122148446895
 20
203.38304055748114
 11
93.08715807929724
 21
203.38304055748114
  0
LINE
  8
_0-2_製品
  6
CONTINUOUS
 62
   83
 10
94.087148489251206
 20
202.38305014752711
 11
94.087148489251206
 21
191.44354255714626
  0
LINE
  8
_0-2_製品
  6
CONTINUOUS
 62
   83
 10
94.087148489251206
 20
191.44354255714626
 11
112.0707124124562
 21
173.45997863394126
  0
LINE
  8
_0-2_製品
  6
CONTINUOUS
 62
   83
 10
112.0707124124562
 20
173.45997863394126
 11
115.39411428403304
 21
176.78338050551804
  0
LINE
  8
_0-2_製品
  6
CONTINUOUS
 62
   83
 10
115.81837835274501
 20
176.78338050551804
 11
117.16188123699936
 21
175.43987762126358
  0
LINE
  8
_0-2_製品
  6
CONTINUOUS
 62
   83
 10
117.16188123699948
 20
175.01561355255171
 11
96.989114719240945
 21
154.84284703479318
  0
LINE
  8
_0-2_製品
  6
CONTINUOUS
 62
   83
 10
96.282007938054392
 20
154.84284703479318
 11
95.78703319122377
 21
155.33782178162375
  0
LINE
  8
_0-2_製品
  6
CONTINUOUS
 62
   83
 10
95.362769122511793
 20
155.33782178162369
 11
94.938505053799929
 21
154.91355771291182
  0
LINE
  8
_0-2_製品
  6
CONTINUOUS
 62
   83
 10
94.938505053799929
 20
154.48929364419985
 11
95.433479800630437
 21
153.99431889736928
  0
LINE
  8
_0-2_製品
  6
CONTINUOUS
 62
   83
 10
95.433479800630437
 20
153.28721211618273
 11
83.708376576351441
 21
141.56210889190368
  0
LINE
  8
_0-2_製品
  6
CONTINUOUS
 62
   83
 10
78.88718112086525
 20
185.63310471478019
 11
82.287091946166413
 21
185.63324613613639
  0
LINE
  8
_0-2_製品
  6
CONTINUOUS
 62
   83
 10
82.587188064102008
 20
185.3331500182008
 11
82.587046642745747
 21
181.88317603279171
  0
LINE
  8
_0-2_製品
  6
CONTINUOUS
 62
   83
 10
82.587046642745747
 20
181.88317603279171
 11
90.58711134373408
 21
181.88303461143545
  0
LINE
  8
_0-2_製品
  6
CONTINUOUS
 62
   83
 10
90.58711134373408
 20
181.88303461143545
 11
90.58711134373408
 21
199.88314483332024
  0
LINE
  8
_0-2_製品
  6
CONTINUOUS
 62
   83
 10
90.587111343734193
 20
199.88314483332022
 11
82.587188064102008
 21
199.88314483332022
  0
LINE
  8
_0-2_製品
  6
CONTINUOUS
 62
   83
 10
82.587188064102008
 20
199.88314483332019
 11
82.587046642745747
 21
196.43317084791099
  0
LINE
  8
_0-2_製品
  6
CONTINUOUS
 62
   83
 10
82.287091946166413
 20
196.13321615133174
 11
78.887039699509103
 21
196.13321615133174
  0
LINE
  8
_0-2_製品
  6
CONTINUOUS
 62
   83
 10
78.587085002929769
 20
196.43317084791107
 11
78.587226424285916
 21
213.89008164048829
  0
ARC
  8
_0-2_製品
  6
CONTINUOUS
 62
   83
 10
108.88873189711677
 20
171.69221168097488
 40
0.2999999999999998
 50
315.00000000000006
 51
45.00000000000005
  0
ARC
  8
_0-2_製品
  6
CONTINUOUS
 62
   83
 10
95.716322513105013
 20
158.51980229696318
 40
0.2999999999999998
 50
225.00000000000006
 51
315.00000000000006
  0
ARC
  8
_0-2_製品
  6
CONTINUOUS
 62
   83
 10
94.443530306969308
 20
158.66122365320052
 40
0.5
 50
45
 51
135.00000000000003
  0
ARC
  8
_0-2_製品
  6
CONTINUOUS
 62
   83
 10
92.817184710240269
 20
157.4591421251834
 40
0.2999999999999998
 50
259.34400000000005
 51
10.656000000000047
  0
ARC
  8
_0-2_製品
  6
CONTINUOUS
 62
   83
 10
91.615103182223095
 20
155.83279652845431
 40
0.5
 50
135.00000000000003
 51
225.00000000000006
  0
ARC
  8
_0-2_製品
  6
CONTINUOUS
 62
   83
 10
91.756524538460496
 20
154.56000432231855
 40
0.2999999999999998
 50
315.00000000000006
 51
45.00000000000005
  0
ARC
  8
_0-2_製品
  6
CONTINUOUS
 62
   83
 10
87.179988029264848
 20
149.98346781312296
 40
0.2999999999999998
 50
213.95900000000003
 51
315.00000000000006
  0
ARC
  8
_0-2_製品
  6
CONTINUOUS
 62
   83
 10
86.164017006056099
 20
149.2992712916469
 40
0.925
 50
33.955000000000048
 51
198.39500000000007
  0
ARC
  8
_0-2_製品
  6
CONTINUOUS
 62
   83
 10
83.483375198577789
 20
148.40817532599556
 40
1.8999999999999999
 50
116.61300000000003
 51
18.387
  0
ARC
  8
_0-2_製品
  6
CONTINUOUS
 62
   83
 10
82.275212552242522
 20
150.95050704707364
 40
0.9162
 50
292.93400000000003
 51
99.806000000000083
  0
ARC
  8
_0-2_製品
  6
CONTINUOUS
 62
   83
 10
82.087122148446895
 20
152.15174004695342
 40
0.2999999999999998
 50
180.00000000000006
 51
276.12100000000009
  0
ARC
  8
_0-2_製品
  6
CONTINUOUS
 62
   83
 10
82.087122148446895
 20
178.08304276933893
 40
0.2999999999999998
 50
90.000000000000028
 51
180.00000000000006
  0
ARC
  8
_0-2_製品
  6
CONTINUOUS
 62
   83
 10
92.087026247987012
 20
180.38311970718254
 40
2
 50
270.00000000000006
 51
359.99900000000008
  0
ARC
  8
_0-2_製品
  6
CONTINUOUS
 62
   83
 10
94.387244607186801
 20
186.19369897090485
 40
0.2999999999999998
 50
45.000000000000099
 51
179.99900000000014
  0
ARC
  8
_0-2_製品
  6
CONTINUOUS
 62
   83
 10
149.29776312158441
 20
249.36973007194825
 40
21.800000000000001
 50
135.06400000000002
 51
271.18799999999999
  0
ARC
  8
_0-2_製品
  6
CONTINUOUS
 62
   83
 10
149.75582689443712
 20
227.27448163749972
 40
0.2999999999999998
 50
45.000000000000099
 51
91.188000000000102
  0
ARC
  8
_0-2_製品
  6
CONTINUOUS
 62
   83
 10
152.72935233068273
 20
211.00734871494697
 40
0.2999999999999998
 50
225.00000000000006
 51
315.00000000000006
  0
ARC
  8
_0-2_製品
  6
CONTINUOUS
 62
   83
 10
151.38584944642838
 20
212.35085159920141
 40
0.2999999999999998
 50
135.00000000000003
 51
225.00000000000006
  0
ARC
  8
_0-2_製品
  6
CONTINUOUS
 62
   83
 10
155.3456474210729
 20
217.1591777112699
 40
0.2999999999999998
 50
315.00000000000006
 51
45.00000000000005
  0
ARC
  8
_0-2_製品
  6
CONTINUOUS
 62
   83
 10
148.41981934206325
 20
224.08500579027964
 40
0.2999999999999998
 50
45.000000000000099
 51
88.011000000000138
  0
ARC
  8
_0-2_製品
  6
CONTINUOUS
 62
   83
 10
149.29776312158441
 20
249.36973007194825
 40
25
 50
185.482
 51
268.01100000000008
  0
ARC
  8
_0-2_製品
  6
CONTINUOUS
 62
   83
 10
82.087122148446895
 20
212.56468068983222
 40
0.2999999999999998
 50
135.00000000000003
 51
179.99900000000002
  0
ARC
  8
_0-2_製品
  6
CONTINUOUS
 62
   83
 10
82.086980727090634
 20
203.68299525406047
 40
0.2999999999999998
 50
179.99900000000005
 51
270.00100000000003
  0
ARC
  8
_0-2_製品
  6
CONTINUOUS
 62
   83
 10
93.08715807929724
 20
202.38319156888335
 40
1
 50
0.0000000000000508
 51
90.001000000000033
  0
ARC
  8
_0-2_製品
  6
CONTINUOUS
 62
   83
 10
115.60624631838908
 20
176.57124847116211
 40
0.2999999999999998
 50
45
 51
135.00000000000003
  0
ARC
  8
_0-2_製品
  6
CONTINUOUS
 62
   83
 10
116.94974920264343
 20
175.22774558690764
 40
0.2999999999999998
 50
315.00000000000006
 51
45.00000000000005
  0
ARC
  8
_0-2_製品
  6
CONTINUOUS
 62
   83
 10
96.635561328647611
 20
155.19640042538646
 40
0.5
 50
225.00000000000006
 51
315.00000000000006
  0
ARC
  8
_0-2_製品
  6
CONTINUOUS
 62
   83
 10
95.574901156867725
 20
155.12568974726776
 40
0.2999999999999998
 50
45
 51
135.00000000000003
  0
ARC
  8
_0-2_製品
  6
CONTINUOUS
 62
   83
 10
95.150637088155861
 20
154.70142567855589
 40
0.2999999999999998
 50
135.00000000000003
 51
225.00000000000006
  0
ARC
  8
_0-2_製品
  6
CONTINUOUS
 62
   83
 10
95.079926410037217
 20
153.64076550677601
 40
0.5
 50
315.00000000000006
 51
45.00000000000005
  0
ARC
  8
_0-2_製品
  6
CONTINUOUS
 62
   83
 10
81.587056232791781
 20
143.68342923546334
 40
3
 50
180.00000000000006
 51
315.00000000000006
  0
ARC
  8
_0-2_製品
  6
CONTINUOUS
 62
   83
 10
78.88718112086525
 20
185.33300859684459
 40
0.2999999999999998
 50
90.002000000000038
 51
180.00000000000006
  0
ARC
  8
_0-2_製品
  6
CONTINUOUS
 62
   83
 10
82.287233367522674
 20
185.33329143955706
 40
0.2999999999999998
 50
359.9980000000001
 51
90.002000000000109
  0
ARC
  8
_0-2_製品
  6
CONTINUOUS
 62
   83
 10
82.286950524810152
 20
196.43317084791101
 40
0.2999999999999998
 50
270.00000000000006
 51
359.99800000000005
  0
ARC
  8
_0-2_製品
  6
CONTINUOUS
 62
   83
 10
78.88718112086525
 20
196.43317084791101
 40
0.2999999999999998
 50
180.00000000000006
 51
270.00000000000006
  0
ARC
  8
_0-2_製品
  6
CONTINUOUS
 62
   83
 10
78.887039699508989
 20
213.89008164048826
 40
0.2999999999999998
 50
135.00000000000003
 51
180.00000000000006
  0
ARC
  8
_0-2_製品
  6
CONTINUOUS
 62
   83
 10
159.37615607383628
 20
217.6541524581005
 40
0.2999999999999998
 50
315.00000000000006
 51
45.00000000000005
  0
ARC
  8
_0-2_製品
  6
CONTINUOUS
 62
   83
 10
124.11344800284434
 20
246.95283909385256
 40
0.2999999999999998
 50
5.4820000000000864
 51
119.40800000000009
  0
ARC
  8
_0-2_製品
  6
CONTINUOUS
 62
   83
 10
122.12478089143536
 20
250.481019089261
 40
3.75
 50
293.13200000000006
 51
299.40800000000002
  0
ARC
  8
_0-2_製品
  6
CONTINUOUS
 62
   83
 10
123.23465569518572
 20
247.88310877518165
 40
0.925
 50
113.13200000000002
 51
293.13200000000006
  0
ARC
  8
_0-2_製品
  6
CONTINUOUS
 62
   83
 10
122.12478089143536
 20
250.481019089261
 40
1.8999999999999999
 50
293.13200000000006
 51
194.90600000000006
  0
ARC
  8
_0-2_製品
  6
CONTINUOUS
 62
   83
 10
119.39478303063032
 20
249.7543961609137
 40
0.925
 50
221.09800000000004
 51
14.899000000000056
  0
ARC
  8
_0-2_製品
  6
CONTINUOUS
 62
   83
 10
118.47158441711321
 20
248.9491429584985
 40
0.2999999999999998
 50
41.096000000000103
 51
135.00000000000011
  0
LINE
  8
_0-2_製品
  6
CONTINUOUS
 62
   83
 10
191.69715851373593
 20
329.93337550101256
 11
191.68414774896218
 21
330.58023678444204
  0
LINE
  8
_0-2_製品
  6
CONTINUOUS
 62
   83
 10
191.68414774896218
 20
330.58023678444204
 11
191.66873282113232
 21
331.22469390481547
  0
LINE
  8
_0-2_製品
  6
CONTINUOUS
 62
   83
 10
191.66873282113232
 20
331.22469390481547
 11
191.6504894661777
 21
331.86660544077665
  0
LINE
  8
_0-2_製品
  6
CONTINUOUS
 62
   83
 10
191.6504894661777
 20
331.86660544077665
 11
191.62970052681084
 21
332.50568854961301
  0
LINE
  8
_0-2_製品
  6
CONTINUOUS
 62
   83
 10
191.62970052681084
 20
332.50568854961301
 11
191.60650742438787
 21
333.14236749539333
  0
LINE
  8
_0-2_製品
  6
CONTINUOUS
 62
   83
 10
191.60650742438787
 20
333.14236749539333
 11
191.5806273161964
 21
333.77664227811766
  0
LINE
  8
_0-2_製品
  6
CONTINUOUS
 62
   83
 10
191.5806273161964
 20
333.77664227811766
 11
191.55220162359268
 21
334.40808863371728
  0
LINE
  8
_0-2_製品
  6
CONTINUOUS
 62
   83
 10
191.55220162359268
 20
334.40808863371728
 11
191.52123034657683
 21
335.03698940490466
  0
LINE
  8
_0-2_製品
  6
CONTINUOUS
 62
   83
 10
191.52123034657683
 20
335.03698940490466
 11
191.4877134851485
 21
335.66362743439214
  0
LINE
  8
_0-2_製品
  6
CONTINUOUS
 62
   83
 10
191.4877134851485
 20
335.66362743439214
 11
191.45165103930805
 21
336.28743703675497
  0
LINE
  8
_0-2_製品
  6
CONTINUOUS
 62
   83
 10
191.45165103930805
 20
336.28743703675497
 11
191.41290158769897
 21
336.90855963334911
  0
LINE
  8
_0-2_製品
  6
CONTINUOUS
 62
   83
 10
191.41290158769897
 20
336.90855963334911
 11
191.37160655167764
 21
337.52741948824359
  0
LINE
  8
_0-2_製品
  6
CONTINUOUS
 62
   83
 10
191.37160655167764
 20
337.52741948824359
 11
191.32790735260033
 21
338.14359233736957
  0
LINE
  8
_0-2_製品
  6
CONTINUOUS
 62
   83
 10
191.32790735260033
 20
338.14359233736957
 11
191.28152114775452
 21
338.75707818072704
  0
LINE
  8
_0-2_製品
  6
CONTINUOUS
 62
   83
 10
191.28152114775452
 20
338.75707818072704
 11
191.23244793714019
 21
339.36815986102846
  0
LINE
  8
_0-2_製品
  6
CONTINUOUS
 62
   83
 10
191.23244793714019
 20
339.36815986102846
 11
191.18097056346977
 21
339.97655453556132
  0
LINE
  8
_0-2_製品
  6
CONTINUOUS
 62
   83
 10
191.18097056346977
 20
339.97655453556132
 11
191.1269476053871
 21
340.58240362568199
  0
LINE
  8
_0-2_製品
  6
CONTINUOUS
 62
   83
 10
191.1269476053871
 20
340.58240362568199
 11
191.07023764153604
 21
341.18584855274662
  0
LINE
  8
_0-2_製品
  6
CONTINUOUS
 62
   83
 10
191.07023764153604
 20
341.18584855274662
 11
191.01112351462888
 21
341.78660647404274
  0
LINE
  8
_0-2_製品
  6
CONTINUOUS
 62
   83
 10
191.01112351462888
 20
341.78660647404274
 11
190.9493223819531
 21
342.38467738957024
  0
LINE
  8
_0-2_製品
  6
CONTINUOUS
 62
   83
 10
190.9493223819531
 20
342.38467738957024
 11
190.88497566486507
 21
342.98048556339802
  0
LINE
  8
_0-2_製品
  6
CONTINUOUS
 62
   83
 10
190.88497566486507
 20
342.98048556339802
 11
190.81808336336491
 21
343.57346531010108
  0
LINE
  8
_0-2_製品
  6
CONTINUOUS
 62
   83
 10
190.81808336336491
 20
343.57346531010108
 11
190.74864547745227
 21
344.16389947239185
  0
LINE
  8
_0-2_製品
  6
CONTINUOUS
 62
   83
 10
190.74864547745227
 20
344.16389947239185
 11
190.67652058577124
 21
344.75192947162651
  0
LINE
  8
_0-2_製品
  6
CONTINUOUS
 62
   83
 10
190.67652058577124
 20
344.75192947162651
 11
190.60185010967808
 21
345.33713104373658
  0
LINE
  8
_0-2_製品
  6
CONTINUOUS
 62
   83
 10
190.60185010967808
 20
345.33713104373658
 11
190.52477547052871
 21
345.9199284527906
  0
LINE
  8
_0-2_製品
  6
CONTINUOUS
 62
   83
 10
190.52477547052871
 20
345.9199284527906
 11
190.44487240425457
 21
346.50018027743215
  0
LINE
  8
_0-2_製品
  6
CONTINUOUS
 62
   83
 10
190.44487240425457
 20
346.50018027743215
 11
190.3627065962807
 21
347.07788651766157
  0
LINE
  8
_0-2_製品
  6
CONTINUOUS
 62
   83
 10
190.3627065962807
 20
347.07788651766157
 11
190.27785378253833
 21
347.65290575212254
  0
LINE
  8
_0-2_製品
  6
CONTINUOUS
 62
   83
 10
190.27785378253833
 20
347.65290575212254
 11
190.19031396302745
 21
348.2255208235274
  0
LINE
  8
_0-2_製品
  6
CONTINUOUS
 62
   83
 10
190.19031396302745
 20
348.2255208235274
 11
190.10036998046047
 21
348.79544888916371
  0
LINE
  8
_0-2_製品
  6
CONTINUOUS
 62
   83
 10
190.10036998046047
 20
348.79544888916371
 11
190.00788041348136
 21
349.36283137038788
  0
LINE
  8
_0-2_製品
  6
CONTINUOUS
 62
   83
 10
190.00788041348136
 20
349.36283137038788
 11
189.91256241937725
 21
349.92766826719958
  0
LINE
  8
_0-2_製品
  6
CONTINUOUS
 62
   83
 10
189.91256241937725
 20
349.92766826719958
 11
189.81498168357365
 21
350.48995957959914
  0
LINE
  8
_0-2_製品
  6
CONTINUOUS
 62
   83
 10
189.81498168357365
 20
350.48995957959914
 11
189.71471394200142
 21
351.04956388623026
  0
LINE
  8
_0-2_製品
  6
CONTINUOUS
 62
   83
 10
189.71471394200142
 20
351.04956388623026
 11
189.61175919466058
 21
351.60676402980516
  0
LINE
  8
_0-2_製品
  6
CONTINUOUS
 62
   83
 10
189.61175919466058
 20
351.60676402980516
 11
189.50640028426386
 21
352.16127716761173
  0
LINE
  8
_0-2_製品
  6
CONTINUOUS
 62
   83
 10
189.50640028426386
 20
352.16127716761173
 11
189.39849578945467
 21
352.71324472100594
  0
LINE
  8
_0-2_製品
  6
CONTINUOUS
 62
   83
 10
189.39849578945467
 20
352.71324472100594
 11
189.28776286752094
 21
353.26266668998784
  0
LINE
  8
_0-2_製品
  6
CONTINUOUS
 62
   83
 10
189.28776286752094
 20
353.26266668998784
 11
189.17476720388737
 21
353.80954307455755
  0
LINE
  8
_0-2_製品
  6
CONTINUOUS
 62
   83
 10
189.17476720388737
 20
353.80954307455755
 11
189.05908453448518
 21
354.35373245335865
  0
LINE
  8
_0-2_製品
  6
CONTINUOUS
 62
   83
 10
189.05908453448518
 20
354.35373245335865
 11
188.94085628067086
 21
354.89565909046007
  0
LINE
  8
_0-2_製品
  6
CONTINUOUS
 62
   83
 10
188.94085628067086
 20
354.89565909046007
 11
188.82008244244417
 21
355.43475730043667
  0
LINE
  8
_0-2_製品
  6
CONTINUOUS
 62
   83
 10
188.82008244244417
 20
355.43475730043667
 11
188.69676301980525
 21
355.97130992600103
  0
LINE
  8
_0-2_製品
  6
CONTINUOUS
 62
   83
 10
188.69676301980525
 20
355.97130992600103
 11
188.57061517004155
 21
356.50531696715314
  0
LINE
  8
_0-2_製品
  6
CONTINUOUS
 62
   83
 10
188.57061517004155
 20
356.50531696715314
 11
188.44220457857801
 21
357.03677842389288
  0
LINE
  8
_0-2_製品
  6
CONTINUOUS
 62
   83
 10
188.44220457857801
 20
357.03677842389288
 11
188.31110698134609
 21
357.5655528748643
  0
LINE
  8
_0-2_製品
  6
CONTINUOUS
 62
   83
 10
188.31110698134609
 20
357.5655528748643
 11
188.1774637997018
 21
358.0920645841357
  0
LINE
  8
_0-2_製品
  6
CONTINUOUS
 62
   83
 10
188.1774637997018
 20
358.0920645841357
 11
188.04127503364526
 21
358.6157478662825
  0
LINE
  8
_0-2_製品
  6
CONTINUOUS
 62
   83
 10
188.04127503364526
 20
358.6157478662825
 11
187.90254068317648
 21
359.13688556401701
  0
LINE
  8
_0-2_製品
  6
CONTINUOUS
 62
   83
 10
187.90254068317648
 20
359.13688556401701
 11
187.76111932693919
 21
359.65561909869541
  0
LINE
  8
_0-2_製品
  6
CONTINUOUS
 62
   83
 10
187.76111932693919
 20
359.65561909869541
 11
187.61729380764581
 21
360.17166562760542
  0
LINE
  8
_0-2_製品
  6
CONTINUOUS
 62
   83
 10
187.61729380764581
 20
360.17166562760542
 11
187.47078128258403
 21
360.68502515074681
  0
LINE
  8
_0-2_製品
  6
CONTINUOUS
 62
   83
 10
187.47078128258403
 20
360.68502515074681
 11
187.32172317310989
 21
361.19612193218848
  0
LINE
  8
_0-2_製品
  6
CONTINUOUS
 62
   83
 10
187.32172317310989
 20
361.19612193218848
 11
187.1701194792235
 21
361.70439028650537
  0
LINE
  8
_0-2_製品
  6
CONTINUOUS
 62
   83
 10
187.1701194792235
 20
361.70439028650537
 11
187.01597020092476
 21
362.21011305641002
  0
LINE
  8
_0-2_製品
  6
CONTINUOUS
 62
   83
 10
187.01597020092476
 20
362.21011305641002
 11
186.85913391685762
 21
362.71343166325858
  0
LINE
  8
_0-2_製品
  6
CONTINUOUS
 62
   83
 10
186.85913391685762
 20
362.71343166325858
 11
186.69989346973449
 21
363.21406326433862
  0
LINE
  8
_0-2_製品
  6
CONTINUOUS
 62
   83
 10
186.69989346973449
 20
363.21406326433862
 11
186.53810743819901
 21
363.71214928100642
  0
LINE
  8
_0-2_製品
  6
CONTINUOUS
 62
   83
 10
186.53810743819901
 20
363.71214928100642
 11
186.37349297953864
 21
364.20768971326191
  0
LINE
  8
_0-2_製品
  6
CONTINUOUS
 62
   83
 10
186.37349297953864
 20
364.20768971326191
 11
186.20661577917866
 21
364.70068456110528
  0
LINE
  8
_0-2_製品
  6
CONTINUOUS
 62
   83
 10
186.20661577917866
 20
364.70068456110528
 11
186.03705157305006
 21
365.19099240317996
  0
LINE
  8
_0-2_製品
  6
CONTINUOUS
 62
   83
 10
186.03705157305006
 20
365.19099240317996
 11
185.86480036115319
 21
365.67889608219878
  0
LINE
  8
_0-2_製品
  6
CONTINUOUS
 62
   83
 10
185.86480036115319
 20
365.67889608219878
 11
185.69014498619998
 21
366.16411275544891
  0
LINE
  8
_0-2_製品
  6
CONTINUOUS
 62
   83
 10
185.69014498619998
 20
366.16411275544891
 11
185.51294402683465
 21
366.6467838442868
  0
LINE
  8
_0-2_製品
  6
CONTINUOUS
 62
   83
 10
185.51294402683465
 20
366.6467838442868
 11
185.3330560617008
 21
367.12705077006876
  0
LINE
  8
_0-2_製品
  6
CONTINUOUS
 62
   83
 10
185.3330560617008
 20
367.12705077006876
 11
185.1506225121546
 21
367.60448926872584
  0
LINE
  8
_0-2_製品
  6
CONTINUOUS
 62
   83
 10
185.1506225121546
 20
367.60448926872584
 11
184.96564337819638
 21
368.07938218297079
  0
LINE
  8
_0-2_製品
  6
CONTINUOUS
 62
   83
 10
184.96564337819638
 20
368.07938218297079
 11
184.77811865982557
 21
368.55201235551584
  0
LINE
  8
_0-2_製品
  6
CONTINUOUS
 62
   83
 10
184.77811865982557
 20
368.55201235551584
 11
184.58804835704262
 21
369.02181410093618
  0
LINE
  8
_0-2_製品
  6
CONTINUOUS
 62
   83
 10
184.58804835704262
 20
369.02181410093618
 11
184.39543246984744
 21
369.48907026194433
  0
LINE
  8
_0-2_製品
  6
CONTINUOUS
 62
   83
 10
184.39543246984744
 20
369.48907026194433
 11
184.20012957688374
 21
369.95392225989633
  0
LINE
  8
_0-2_製品
  6
CONTINUOUS
 62
   83
 10
184.20012957688374
 20
369.95392225989633
 11
184.00228109950768
 21
370.41594583072356
  0
LINE
  8
_0-2_製品
  6
CONTINUOUS
 62
   83
 10
184.00228109950768
 20
370.41594583072356
 11
183.80202845907564
 21
370.87556523849486
  0
LINE
  8
_0-2_製品
  6
CONTINUOUS
 62
   83
 10
183.80202845907564
 20
370.87556523849486
 11
183.59894739151883
 21
371.3326390618538
  0
LINE
  8
_0-2_製品
  6
CONTINUOUS
 62
   83
 10
183.59894739151883
 20
371.3326390618538
 11
183.39346216090615
 21
371.7870258794444
  0
LINE
  8
_0-2_製品
  6
CONTINUOUS
 62
   83
 10
183.39346216090615
 20
371.7870258794444
 11
183.185431345881
 21
372.23886711262253
  0
LINE
  8
_0-2_製品
  6
CONTINUOUS
 62
   83
 10
183.185431345881
 20
372.23886711262253
 11
182.97471352508734
 21
372.68830418274467
  0
LINE
  8
_0-2_製品
  6
CONTINUOUS
 62
   83
 10
182.97471352508734
 20
372.68830418274467
 11
182.76159154123792
 21
373.13505424709842
  0
LINE
  8
_0-2_製品
  6
CONTINUOUS
 62
   83
 10
182.76159154123792
 20
373.13505424709842
 11
182.54578255161965
 21
373.57911730568355
  0
LINE
  8
_0-2_製品
  6
CONTINUOUS
 62
   83
 10
182.54578255161965
 20
373.57911730568355
 11
182.32742797758925
 21
374.02091762256879
  0
LINE
  8
_0-2_製品
  6
CONTINUOUS
 62
   83
 10
182.32742797758925
 20
374.02091762256879
 11
182.10652781914661
 21
374.45988951232948
  0
LINE
  8
_0-2_製品
  6
CONTINUOUS
 62
   83
 10
182.10652781914661
 20
374.45988951232948
 11
181.88308207629171
 21
374.89631581767782
  0
LINE
  8
_0-2_製品
  6
CONTINUOUS
 62
   83
 10
181.88308207629171
 20
374.89631581767782
 11
181.6569493276682
 21
375.33033795997011
  0
LINE
  8
_0-2_製品
  6
CONTINUOUS
 62
   83
 10
181.6569493276682
 20
375.33033795997011
 11
181.4284124159887
 21
375.76167309649389
  0
LINE
  8
_0-2_製品
  6
CONTINUOUS
 62
   83
 10
181.4284124159887
 20
375.76167309649389
 11
181.19732991989696
 21
376.19046264860549
  0
LINE
  8
_0-2_製品
  6
CONTINUOUS
 62
   83
 10
181.19732991989696
 20
376.19046264860549
 11
180.96341899668045
 21
376.61670661630467
  0
LINE
  8
_0-2_製品
  6
CONTINUOUS
 62
   83
 10
180.96341899668045
 20
376.61670661630467
 11
180.7272453317641
 21
377.0404049995916
  0
LINE
  8
_0-2_製品
  6
CONTINUOUS
 62
   83
 10
180.7272453317641
 20
377.0404049995916
 11
180.48838466107935
 21
377.46141637711014
  0
LINE
  8
_0-2_製品
  6
CONTINUOUS
 62
   83
 10
180.48838466107935
 20
377.46141637711014
 11
180.24683698462599
 21
377.88002359157258
  0
LINE
  8
_0-2_製品
  6
CONTINUOUS
 62
   83
 10
180.24683698462599
 20
377.88002359157258
 11
180.00288514511664
 21
378.29594380026651
  0
LINE
  8
_0-2_製品
  6
CONTINUOUS
 62
   83
 10
180.00288514511664
 20
378.29594380026651
 11
179.75638772119493
 21
378.70931842454809
  0
LINE
  8
_0-2_製品
  6
CONTINUOUS
 62
   83
 10
179.75638772119493
 20
378.70931842454809
 11
179.50720329150482
 21
379.12028888577379
  0
LINE
  8
_0-2_製品
  6
CONTINUOUS
 62
   83
 10
179.50720329150482
 20
379.12028888577379
 11
179.25547327740247
 21
379.52843091987472
  0
LINE
  8
_0-2_製品
  6
CONTINUOUS
 62
   83
 10
179.25547327740247
 20
379.52843091987472
 11
179.00133910024402
 21
379.9341687909195
  0
LINE
  8
_0-2_製品
  6
CONTINUOUS
 62
   83
 10
179.00133910024402
 20
379.9341687909195
 11
178.74437649596081
 21
380.33736107755203
  0
LINE
  8
_0-2_製品
  6
CONTINUOUS
 62
   83
 10
178.74437649596081
 20
380.33736107755203
 11
178.48500972862149
 21
380.73786635841611
  0
LINE
  8
_0-2_製品
  6
CONTINUOUS
 62
   83
 10
178.48500972862149
 20
380.73786635841611
 11
178.22309737687004
 21
381.13582605486789
  0
LINE
  8
_0-2_製品
  6
CONTINUOUS
 62
   83
 10
178.22309737687004
 20
381.13582605486789
 11
177.95849801935009
 21
381.53138158826368
  0
LINE
  8
_0-2_製品
  6
CONTINUOUS
 62
   83
 10
177.95849801935009
 20
381.53138158826368
 11
177.69135307741789
 21
381.92410869453471
  0
LINE
  8
_0-2_製品
  6
CONTINUOUS
 62
   83
 10
177.69135307741789
 20
381.92410869453471
 11
177.42180397242947
 21
382.31443163774964
  0
LINE
  8
_0-2_製品
  6
CONTINUOUS
 62
   83
 10
177.42180397242947
 20
382.31443163774964
 11
177.1494264403164
 21
382.70220899655232
  0
LINE
  8
_0-2_製品
  6
CONTINUOUS
 62
   83
 10
177.1494264403164
 20
382.70220899655232
 11
176.87464474514735
 21
383.08729934958649
  0
LINE
  8
_0-2_製品
  6
CONTINUOUS
 62
   83
 10
176.87464474514735
 20
383.08729934958649
 11
176.59731746556594
 21
383.46984411820847
  0
LINE
  8
_0-2_製品
  6
CONTINUOUS
 62
   83
 10
176.59731746556594
 20
383.46984411820847
 11
176.31730318021613
 21
383.84998472377436
  0
LINE
  8
_0-2_製品
  6
CONTINUOUS
 62
   83
 10
176.31730318021613
 20
383.84998472377436
 11
176.03488473181022
 21
384.22743832357179
  0
LINE
  8
_0-2_製品
  6
CONTINUOUS
 62
   83
 10
176.03488473181022
 20
384.22743832357179
 11
175.74992069899207
 21
384.60234633895686
  0
LINE
  8
_0-2_製品
  6
CONTINUOUS
 62
   83
 10
175.74992069899207
 20
384.60234633895686
 11
175.64413752452646
 21
384.73924221179448
  0
LINE
  8
_0-2_製品
  6
CONTINUOUS
 62
   83
 10
175.66931052593674
 20
385.13465632383407
 11
177.522778820783
 21
386.98812461868027
  0
LINE
  8
_0-2_製品
  6
CONTINUOUS
 62
   83
 10
177.97094309869891
 20
386.96111313963888
 11
177.98706513331007
 21
386.9407484643408
  0
LINE
  8
_0-2_製品
  6
CONTINUOUS
 62
   83
 10
177.98706513331007
 20
386.9407484643408
 11
178.2897068356578
 21
386.54901130756332
  0
LINE
  8
_0-2_製品
  6
CONTINUOUS
 62
   83
 10
178.2897068356578
 20
386.54901130756332
 11
178.58952011088098
 21
386.15472856637376
  0
LINE
  8
_0-2_製品
  6
CONTINUOUS
 62
   83
 10
178.58952011088098
 20
386.15472856637376
 11
178.88650495897929
 21
385.75761739805944
  0
LINE
  8
_0-2_製品
  6
CONTINUOUS
 62
   83
 10
178.88650495897929
 20
385.75761739805944
 11
179.18094422266535
 21
385.3579606453327
  0
LINE
  8
_0-2_製品
  6
CONTINUOUS
 62
   83
 10
179.18094422266535
 20
385.3579606453327
 11
179.47255505922675
 21
384.95575830819388
  0
LINE
  8
_0-2_製品
  6
CONTINUOUS
 62
   83
 10
179.47255505922675
 20
384.95575830819388
 11
179.76147889001953
 21
384.55086896528644
  0
LINE
  8
_0-2_製品
  6
CONTINUOUS
 62
   83
 10
179.76147889001953
 20
384.55086896528644
 11
180.04757429368766
 21
384.14343403796681
  0
LINE
  8
_0-2_製品
  6
CONTINUOUS
 62
   83
 10
180.04757429368766
 20
384.14343403796681
 11
180.33098269158717
 21
383.73331210487856
  0
LINE
  8
_0-2_製品
  6
CONTINUOUS
 62
   83
 10
180.33098269158717
 20
383.73331210487856
 11
180.61156266236202
 21
383.32064458737818
  0
LINE
  8
_0-2_製品
  6
CONTINUOUS
 62
   83
 10
180.61156266236202
 20
383.32064458737818
 11
180.88945562736825
 21
382.90529006410907
  0
LINE
  8
_0-2_製品
  6
CONTINUOUS
 62
   83
 10
180.88945562736825
 20
382.90529006410907
 11
181.16437874389368
 21
382.48724853507173
  0
LINE
  8
_0-2_製品
  6
CONTINUOUS
 62
   83
 10
181.16437874389368
 20
382.48724853507173
 11
181.43689769736289
 21
382.06680284297812
  0
LINE
  8
_0-2_製品
  6
CONTINUOUS
 62
   83
 10
181.43689769736289
 20
382.06680284297812
 11
181.70644680235119
 21
381.64367014511606
  0
LINE
  8
_0-2_製品
  6
CONTINUOUS
 62
   83
 10
181.70644680235119
 20
381.64367014511606
 11
181.97330890157099
 21
381.21785044148555
  0
LINE
  8
_0-2_製品
  6
CONTINUOUS
 62
   83
 10
181.97330890157099
 20
381.21785044148555
 11
182.23734257366613
 21
380.78948515344274
  0
LINE
  8
_0-2_製品
  6
CONTINUOUS
 62
   83
 10
182.23734257366613
 20
380.78948515344274
 11
182.49868923999276
 21
380.35871570234394
  0
LINE
  8
_0-2_製品
  6
CONTINUOUS
 62
   83
 10
182.49868923999276
 20
380.35871570234394
 11
182.75720747919451
 21
379.92511782412032
  0
LINE
  8
_0-2_製品
  6
CONTINUOUS
 62
   83
 10
182.75720747919451
 20
379.92511782412032
 11
183.01303871262775
 21
379.4891157828406
  0
LINE
  8
_0-2_製品
  6
CONTINUOUS
 62
   83
 10
183.01303871262775
 20
379.4891157828406
 11
183.26590009758007
 21
379.05042673579248
  0
LINE
  8
_0-2_製品
  6
CONTINUOUS
 62
   83
 10
183.26590009758007
 20
379.05042673579248
 11
183.51621589812004
 21
378.60919210433212
  0
LINE
  8
_0-2_製品
  6
CONTINUOUS
 62
   83
 10
183.51621589812004
 20
378.60919210433212
 11
183.76384469289161
 21
378.16555330981566
  0
LINE
  8
_0-2_製品
  6
CONTINUOUS
 62
   83
 10
183.76384469289161
 20
378.16555330981566
 11
184.00864506053841
 21
377.71908608817455
  0
LINE
  8
_0-2_製品
  6
CONTINUOUS
 62
   83
 10
184.00864506053841
 20
377.71908608817455
 11
184.25047557970419
 21
377.27021470347728
  0
LINE
  8
_0-2_製品
  6
CONTINUOUS
 62
   83
 10
184.25047557970419
 20
377.27021470347728
 11
184.48976051445771
 21
376.81879773436776
  0
LINE
  8
_0-2_製品
  6
CONTINUOUS
 62
   83
 10
184.48976051445771
 20
376.81879773436776
 11
184.72635844344285
 21
376.3646937594898
  0
LINE
  8
_0-2_製品
  6
CONTINUOUS
 62
   83
 10
184.72635844344285
 20
376.3646937594898
 11
184.95998652394684
 21
375.90818562155579
  0
LINE
  8
_0-2_製品
  6
CONTINUOUS
 62
   83
 10
184.95998652394684
 20
375.90818562155579
 11
185.19106902003858
 21
375.44913189920948
  0
LINE
  8
_0-2_製品
  6
CONTINUOUS
 62
   83
 10
185.19106902003858
 20
375.44913189920948
 11
185.41932308900556
 21
374.98753259245086
  0
LINE
  8
_0-2_製品
  6
CONTINUOUS
 62
   83
 10
185.41932308900556
 20
374.98753259245086
 11
185.64489015220403
 21
374.52324627992374
  0
LINE
  8
_0-2_製品
  6
CONTINUOUS
 62
   83
 10
185.64489015220403
 20
374.52324627992374
 11
185.86748736692169
 21
374.05655580434075
  0
LINE
  8
_0-2_製品
  6
CONTINUOUS
 62
   83
 10
185.86748736692169
 20
374.05655580434075
 11
186.08753899722689
 21
373.58731974434522
  0
LINE
  8
_0-2_製品
  6
CONTINUOUS
 62
   83
 10
186.08753899722689
 20
373.58731974434522
 11
186.30476220040742
 21
373.11553809993757
  0
LINE
  8
_0-2_製品
  6
CONTINUOUS
 62
   83
 10
186.30476220040742
 20
373.11553809993757
 11
186.51915697646308
 21
372.64121087111766
  0
LINE
  8
_0-2_製品
  6
CONTINUOUS
 62
   83
 10
186.51915697646308
 20
372.64121087111766
 11
186.73100616810672
 21
372.16433805788552
  0
LINE
  8
_0-2_製品
  6
CONTINUOUS
 62
   83
 10
186.73100616810672
 20
372.16433805788552
 11
186.94002693262536
 21
371.68491966024101
  0
LINE
  8
_0-2_製品
  6
CONTINUOUS
 62
   83
 10
186.94002693262536
 20
371.68491966024101
 11
187.14607784866308
 21
371.2030970995404
  0
LINE
  8
_0-2_製品
  6
CONTINUOUS
 62
   83
 10
187.14607784866308
 20
371.2030970995404
 11
187.34958318028856
 21
370.71872895442766
  0
LINE
  8
_0-2_製品
  6
CONTINUOUS
 62
   83
 10
187.34958318028856
 20
370.71872895442766
 11
187.55054292750191
 21
370.23181522490268
  0
LINE
  8
_0-2_製品
  6
CONTINUOUS
 62
   83
 10
187.55054292750191
 20
370.23181522490268
 11
187.74839140487774
 21
369.74235591096533
  0
LINE
  8
_0-2_製品
  6
CONTINUOUS
 62
   83
 10
187.74839140487774
 20
369.74235591096533
 11
187.94383571919781
 21
369.250492433972
  0
LINE
  8
_0-2_製品
  6
CONTINUOUS
 62
   83
 10
187.94383571919781
 20
369.250492433972
 11
188.13631018503673
 21
368.75594195121005
  0
LINE
  8
_0-2_製品
  6
CONTINUOUS
 62
   83
 10
188.13631018503673
 20
368.75594195121005
 11
188.32609764510715
 21
368.25898730539211
  0
LINE
  8
_0-2_製品
  6
CONTINUOUS
 62
   83
 10
188.32609764510715
 20
368.25898730539211
 11
188.51319809940918
 21
367.75962849651819
  0
LINE
  8
_0-2_製品
  6
CONTINUOUS
 62
   83
 10
188.51319809940918
 20
367.75962849651819
 11
188.69747012658644
 21
367.25772410323202
  0
LINE
  8
_0-2_製品
  6
CONTINUOUS
 62
   83
 10
188.69747012658644
 20
367.25772410323202
 11
188.87919656935134
 21
366.75327412553349
  0
LINE
  8
_0-2_製品
  6
CONTINUOUS
 62
   83
 10
188.87919656935134
 20
366.75327412553349
 11
189.05795316363532
 21
366.24641998477904
  0
LINE
  8
_0-2_製品
  6
CONTINUOUS
 62
   83
 10
189.05795316363532
 20
366.24641998477904
 11
189.23416417350694
 21
365.73702025961217
  0
LINE
  8
_0-2_製品
  6
CONTINUOUS
 62
   83
 10
189.23416417350694
 20
365.73702025961217
 11
189.40754675625402
 21
365.22507495003316
  0
LINE
  8
_0-2_製品
  6
CONTINUOUS
 62
   83
 10
189.40754675625402
 20
365.22507495003316
 11
189.57838375458863
 21
364.71058405604185
  0
LINE
  8
_0-2_製品
  6
CONTINUOUS
 62
   83
 10
189.57838375458863
 20
364.71058405604185
 11
189.74625090444232
 21
364.19368899899445
  0
LINE
  8
_0-2_製品
  6
CONTINUOUS
 62
   83
 10
189.74625090444232
 20
364.19368899899445
 11
189.9114310485275
 21
363.67438977889111
  0
LINE
  8
_0-2_製品
  6
CONTINUOUS
 62
   83
 10
189.9114310485275
 20
363.67438977889111
 11
190.07406560820044
 21
363.15254497437542
  0
LINE
  8
_0-2_製品
  6
CONTINUOUS
 62
   83
 10
190.07406560820044
 20
363.15254497437542
 11
190.23387174074861
 21
362.62815458544753
  0
LINE
  8
_0-2_製品
  6
CONTINUOUS
 62
   83
 10
190.23387174074861
 20
362.62815458544753
 11
190.39099086752816
 21
362.10136003346344
  0
LINE
  8
_0-2_製品
  6
CONTINUOUS
 62
   83
 10
190.39099086752816
 20
362.10136003346344
 11
190.54542298853943
 21
361.57216131842353
  0
LINE
  8
_0-2_製品
  6
CONTINUOUS
 62
   83
 10
190.54542298853943
 20
361.57216131842353
 11
190.69716810378196
 21
361.04027559761494
  0
LINE
  8
_0-2_製品
  6
CONTINUOUS
 62
   83
 10
190.69716810378196
 20
361.04027559761494
 11
190.84608479189984
 21
360.50612713510657
  0
LINE
  8
_0-2_製品
  6
CONTINUOUS
 62
   83
 10
190.84608479189984
 20
360.50612713510657
 11
190.99231447424921
 21
359.96929166682975
  0
LINE
  8
_0-2_製品
  6
CONTINUOUS
 62
   83
 10
190.99231447424921
 20
359.96929166682975
 11
191.13599857218634
 21
359.4301934568532
  0
LINE
  8
_0-2_製品
  6
CONTINUOUS
 62
   83
 10
191.13599857218634
 20
359.4301934568532
 11
191.27671282164243
 21
358.88840824110804
  0
LINE
  8
_0-2_製品
  6
CONTINUOUS
 62
   83
 10
191.27671282164243
 20
358.88840824110804
 11
191.41488148668628
 21
358.34436028366309
  0
LINE
  8
_0-2_製品
  6
CONTINUOUS
 62
   83
 10
191.41488148668628
 20
358.34436028366309
 11
191.550504567318
 21
357.79776674180596
  0
LINE
  8
_0-2_製品
  6
CONTINUOUS
 62
   83
 10
191.550504567318
 20
357.79776674180596
 11
191.68329922082484
 21
357.24862761553646
  0
LINE
  8
_0-2_製品
  6
CONTINUOUS
 62
   83
 10
191.68329922082484
 20
357.24862761553646
 11
191.81340686856305
 21
356.69708432621098
  0
LINE
  8
_0-2_製品
  6
CONTINUOUS
 62
   83
 10
191.81340686856305
 20
356.69708432621098
 11
191.94068608917661
 21
356.14299545247314
  0
LINE
  8
_0-2_製品
  6
CONTINUOUS
 62
   83
 10
191.94068608917661
 20
356.14299545247314
 11
192.06541972537804
 21
355.58664383703564
  0
LINE
  8
_0-2_製品
  6
CONTINUOUS
 62
   83
 10
192.06541972537804
 20
355.58664383703564
 11
192.18732493445447
 21
355.02774663718571
  0
LINE
  8
_0-2_製品
  6
CONTINUOUS
 62
   83
 10
192.18732493445447
 20
355.02774663718571
 11
192.30668455911876
 21
354.4663038529236
  0
LINE
  8
_0-2_製品
  6
CONTINUOUS
 62
   83
 10
192.30668455911876
 20
354.4663038529236
 11
192.42321575665829
 21
353.90231548424924
  0
LINE
  8
_0-2_製品
  6
CONTINUOUS
 62
   83
 10
192.42321575665829
 20
353.90231548424924
 11
192.53720136978558
 21
353.33606437387505
  0
LINE
  8
_0-2_製品
  6
CONTINUOUS
 62
   83
 10
192.53720136978558
 20
353.33606437387505
 11
192.64849997714435
 21
352.76712625773234
  0
LINE
  8
_0-2_製品
  6
CONTINUOUS
 62
   83
 10
192.64849997714435
 20
352.76712625773234
 11
192.75697015737836
 21
352.19592539988986
  0
LINE
  8
_0-2_製品
  6
CONTINUOUS
 62
   83
 10
192.75697015737836
 20
352.19592539988986
 11
192.86289475320012
 21
351.62217895763501
  0
LINE
  8
_0-2_製品
  6
CONTINUOUS
 62
   83
 10
192.86289475320012
 20
351.62217895763501
 11
192.96613234325338
 21
351.04602835232424
  0
LINE
  8
_0-2_製品
  6
CONTINUOUS
 62
   83
 10
192.96613234325338
 20
351.04602835232424
 11
193.06682434889439
 21
350.46733216260122
  0
LINE
  8
_0-2_製品
  6
CONTINUOUS
 62
   83
 10
193.06682434889439
 20
350.46733216260122
 11
193.16468792741051
 21
349.88637323117837
  0
LINE
  8
_0-2_製品
  6
CONTINUOUS
 62
   83
 10
193.16468792741051
 20
349.88637323117837
 11
193.25986450015824
 21
349.30272729398695
  0
LINE
  8
_0-2_製品
  6
CONTINUOUS
 62
   83
 10
193.25986450015824
 20
349.30272729398695
 11
193.35249548849362
 21
348.71653577238328
  0
LINE
  8
_0-2_製品
  6
CONTINUOUS
 62
   83
 10
193.35249548849362
 20
348.71653577238328
 11
193.44229804970445
 21
348.12808150907983
  0
LINE
  8
_0-2_製品
  6
CONTINUOUS
 62
   83
 10
193.44229804970445
 20
348.12808150907983
 11
193.52955502650292
 21
347.5370816613642
  0
LINE
  8
_0-2_製品
  6
CONTINUOUS
 62
   83
 10
193.52955502650292
 20
347.5370816613642
 11
193.61412499753277
 21
346.94367765059241
  0
LINE
  8
_0-2_製品
  6
CONTINUOUS
 62
   83
 10
193.61412499753277
 20
346.94367765059241
 11
193.69600796279411
 21
346.34786947676457
  0
LINE
  8
_0-2_製品
  6
CONTINUOUS
 62
   83
 10
193.69600796279411
 20
346.34786947676457
 11
193.77534534364321
 21
345.74951571852455
  0
LINE
  8
_0-2_製品
  6
CONTINUOUS
 62
   83
 10
193.77534534364321
 20
345.74951571852455
 11
193.85171287601139
 21
345.14875779722848
  0
LINE
  8
_0-2_製品
  6
CONTINUOUS
 62
   83
 10
193.85171287601139
 20
345.14875779722848
 11
193.92581766667973
 21
344.54545429152017
  0
LINE
  8
_0-2_製品
  6
CONTINUOUS
 62
   83
 10
193.92581766667973
 20
344.54545429152017
 11
193.99695260886716
 21
343.93974662275571
  0
LINE
  8
_0-2_製品
  6
CONTINUOUS
 62
   83
 10
193.99695260886716
 20
343.93974662275571
 11
194.06568338799838
 21
343.33163479093525
  0
LINE
  8
_0-2_製品
  6
CONTINUOUS
 62
   83
 10
194.06568338799838
 20
343.33163479093525
 11
194.13158574000505
 21
342.72097737470256
  0
LINE
  8
_0-2_製品
  6
CONTINUOUS
 62
   83
 10
194.13158574000505
 20
342.72097737470256
 11
194.19494250759936
 21
342.10777437405761
  0
LINE
  8
_0-2_製品
  6
CONTINUOUS
 62
   83
 10
194.19494250759936
 20
342.10777437405761
 11
194.25547084806891
 21
341.49230863171283
  0
LINE
  8
_0-2_製品
  6
CONTINUOUS
 62
   83
 10
194.25547084806891
 20
341.49230863171283
 11
194.31373644683873
 21
340.87429730495586
  0
LINE
  8
_0-2_製品
  6
CONTINUOUS
 62
   83
 10
194.31373644683873
 20
340.87429730495586
 11
194.36903219712752
 21
340.25388181514273
  0
LINE
  8
_0-2_製品
  6
CONTINUOUS
 62
   83
 10
194.36903219712752
 20
340.25388181514273
 11
194.42178236300396
 21
339.6309207409173
  0
LINE
  8
_0-2_製品
  6
CONTINUOUS
 62
   83
 10
194.42178236300396
 20
339.6309207409173
 11
194.47184552311199
 21
339.00555550363595
  0
LINE
  8
_0-2_製品
  6
CONTINUOUS
 62
   83
 10
194.47184552311199
 20
339.00555550363595
 11
194.51936309880767
 21
338.37764468194234
  0
LINE
  8
_0-2_製品
  6
CONTINUOUS
 62
   83
 10
194.51936309880767
 20
338.37764468194234
 11
194.56419366873496
 21
337.74732969719258
  0
LINE
  8
_0-2_製品
  6
CONTINUOUS
 62
   83
 10
194.56419366873496
 20
337.74732969719258
 11
194.60619581153748
 21
337.11446912803069
  0
LINE
  8
_0-2_製品
  6
CONTINUOUS
 62
   83
 10
194.60619581153748
 20
337.11446912803069
 11
194.64579379128389
 21
336.4792043958127
  0
LINE
  8
_0-2_製品
  6
CONTINUOUS
 62
   83
 10
194.64579379128389
 20
336.4792043958127
 11
194.6827047652618
 21
335.84153550053867
  0
LINE
  8
_0-2_製品
  6
CONTINUOUS
 62
   83
 10
194.6827047652618
 20
335.84153550053867
 11
194.71707015482747
 21
335.20132102085233
  0
LINE
  8
_0-2_製品
  6
CONTINUOUS
 62
   83
 10
194.71707015482747
 20
335.20132102085233
 11
194.74874853862462
 21
334.55870237811001
  0
LINE
  8
_0-2_製品
  6
CONTINUOUS
 62
   83
 10
194.74874853862462
 20
334.55870237811001
 11
194.77773991665327
 21
333.91367957231165
  0
LINE
  8
_0-2_製品
  6
CONTINUOUS
 62
   83
 10
194.77773991665327
 20
333.91367957231165
 11
194.80418571026968
 21
333.26611118210099
  0
LINE
  8
_0-2_製品
  6
CONTINUOUS
 62
   83
 10
194.80418571026968
 20
333.26611118210099
 11
194.82780307676131
 21
332.61599720747807
  0
LINE
  8
_0-2_製品
  6
CONTINUOUS
 62
   83
 10
194.82780307676131
 20
332.61599720747807
 11
194.84901628019685
 21
331.96347906979906
  0
LINE
  8
_0-2_製品
  6
CONTINUOUS
 62
   83
 10
194.84901628019685
 20
331.96347906979906
 11
194.86754247786399
 21
331.30855676906418
  0
LINE
  8
_0-2_製品
  6
CONTINUOUS
 62
   83
 10
194.86754247786399
 20
331.30855676906418
 11
194.88352309111889
 21
330.65108888391694
  0
LINE
  8
_0-2_製品
  6
CONTINUOUS
 62
   83
 10
194.88352309111889
 20
330.65108888391694
 11
194.89681669860505
 21
329.99121683571366
  0
LINE
  8
_0-2_製品
  6
CONTINUOUS
 62
   83
 10
194.89681669860505
 20
329.99121683571366
 11
194.90742330032282
 21
329.32894062445428
  0
LINE
  8
_0-2_製品
  6
CONTINUOUS
 62
   83
 10
194.90742330032282
 20
329.32894062445428
 11
194.91548431762845
 21
328.6641188287827
  0
LINE
  8
_0-2_製品
  6
CONTINUOUS
 62
   83
 10
194.91548431762845
 20
328.6641188287827
 11
194.92071690780921
 21
327.99675144869889
  0
LINE
  8
_0-2_製品
  6
CONTINUOUS
 62
   83
 10
194.92071690780921
 20
327.99675144869889
 11
194.92354533493398
 21
327.32697990555891
  0
LINE
  8
_0-2_製品
  6
CONTINUOUS
 62
   83
 10
194.92354533493398
 20
327.32697990555891
 11
194.9238281776465
 21
326.65466277800681
  0
LINE
  8
_0-2_製品
  6
CONTINUOUS
 62
   83
 10
194.9238281776465
 20
326.65466277800681
 11
194.92128259323414
 21
325.98008290875487
  0
LINE
  8
_0-2_製品
  6
CONTINUOUS
 62
   83
 10
194.92128259323414
 20
325.98008290875487
 11
194.92114117187788
 21
325.94486899105169
  0
LINE
  8
_0-2_製品
  6
CONTINUOUS
 62
   83
 10
194.83317708829844
 20
325.7349996983956
 11
133.86544046490047
 21
264.76726307499774
  0
LINE
  8
_0-2_製品
  6
CONTINUOUS
 62
   83
 10
191.72374572870871
 20
327.27521968917614
 11
191.72360430735233
 21
327.31976741639085
  0
LINE
  8
_0-2_製品
  6
CONTINUOUS
 62
   83
 10
191.72360430735233
 20
327.31976741639085
 11
191.72077588022756
 21
327.97709388018183
  0
LINE
  8
_0-2_製品
  6
CONTINUOUS
 62
   83
 10
191.72077588022756
 20
327.97709388018183
 11
191.71554329004681
 21
328.6317333382043
  0
LINE
  8
_0-2_製品
  6
CONTINUOUS
 62
   83
 10
191.71554329004681
 20
328.6317333382043
 11
191.70776511545381
 21
329.28382721181458
  0
LINE
  8
_0-2_製品
  6
CONTINUOUS
 62
   83
 10
191.70776511545381
 20
329.28382721181458
 11
191.69715851373593
 21
329.93337550101256
  0
ARC
  8
_0-2_製品
  6
CONTINUOUS
 62
   83
 10
175.88144256029267
 20
384.92252428947808
 40
0.2999999999999998
 50
135.00000000000003
 51
217.68700000000004
  0
ARC
  8
_0-2_製品
  6
CONTINUOUS
 62
   83
 10
177.73491085513893
 20
386.77599258432429
 40
0.2999999999999998
 50
38.126000000000033
 51
135.00000000000009
  0
ARC
  8
_0-2_製品
  6
CONTINUOUS
 62
   83
 10
194.6210450539424
 20
325.94713173275159
 40
0.2999999999999998
 50
315.00000000000006
 51
359.57300000000004
  0
ARC
  8
_0-2_製品
  6
CONTINUOUS
 62
   83
 10
191.423649610773
 20
327.27521968917608
 40
0.2999999999999998
 50
315.00000000000006
 51
0.0160000000000664
  0
LINE
  8
_0-2_製品
  6
dotted
 62
    7
 10
111.45552523551265
 20
174.07516581088476
 11
112.68589958939975
 21
174.07516581088476
  0
LINE
  8
_0-2_製品
  6
dotted
 62
    7
 10
109.45552523551265
 20
176.07516581088476
 11
114.68589958939975
 21
176.07516581088476
  0
LINE
  8
_0-2_製品
  6
dotted
 62
    7
 10
107.45552523551265
 20
178.07516581088476
 11
116.6858995893993
 21
178.07516581088476
  0
LINE
  8
_0-2_製品
  6
dotted
 62
    7
 10
105.45552523551265
 20
180.07516581088476
 11
118.6858995893993
 21
180.07516581088476
  0
LINE
  8
_0-2_製品
  6
dotted
 62
    7
 10
103.45552523551265
 20
182.07516581088476
 11
120.68589958939941
 21
182.07516581088476
  0
LINE
  8
_0-2_製品
  6
dotted
 62
    7
 10
101.45552523551265
 20
184.07516581088476
 11
122.68589958939941
 21
184.07516581088476
  0
LINE
  8
_0-2_製品
  6
dotted
 62
    7
 10
99.455525235512653
 20
186.07516581088476
 11
124.68589958939941
 21
186.07516581088476
  0
LINE
  8
_0-2_製品
  6
dotted
 62
    7
 10
97.455525235512653
 20
188.07516581088476
 11
126.68589958939941
 21
188.07516581088476
  0
LINE
  8
_0-2_製品
  6
dotted
 62
    7
 10
95.455525235512653
 20
190.07516581088476
 11
128.68589958939953
 21
190.07516581088476
  0
LINE
  8
_0-2_製品
  6
dotted
 62
    7
 10
94.087148489251206
 20
192.07516581088476
 11
130.68589958939953
 21
192.07516581088476
  0
LINE
  8
_0-2_製品
  6
dotted
 62
    7
 10
94.087148489251206
 20
194.07516581088476
 11
132.68589958939953
 21
194.07516581088476
  0
LINE
  8
_0-2_製品
  6
dotted
 62
    7
 10
94.087148489251206
 20
196.07516581088476
 11
134.68589958939953
 21
196.07516581088476
  0
LINE
  8
_0-2_製品
  6
dotted
 62
    7
 10
94.087148489251206
 20
198.07516581088476
 11
136.68589958939953
 21
198.07516581088476
  0
LINE
  8
_0-2_製品
  6
dotted
 62
    7
 10
94.087148489251206
 20
200.07516581088476
 11
138.68589958939964
 21
200.07516581088476
  0
LINE
  8
_0-2_製品
  6
dotted
 62
    7
 10
94.087148489251206
 20
202.07516581088476
 11
140.68589958939964
 21
202.07516581088476
  0
LINE
  8
_0-2_製品
  6
dotted
 62
    7
 10
81.78717369632335
 20
204.07516581088476
 11
142.68589958939964
 21
204.07516581088476
  0
LINE
  8
_0-2_製品
  6
dotted
 62
    7
 10
81.787205541935862
 20
206.07516581088476
 11
144.68589958939964
 21
206.07516581088476
  0
LINE
  8
_0-2_製品
  6
dotted
 62
    7
 10
81.787237387548259
 20
208.07516581088476
 11
146.68589958939975
 21
208.07516581088476
  0
LINE
  8
_0-2_製品
  6
dotted
 62
    7
 10
81.787269233160771
 20
210.07516581088476
 11
148.68589958939975
 21
210.07516581088476
  0
LINE
  8
_0-2_製品
  6
dotted
 62
    7
 10
81.787301078773282
 20
212.07516581088476
 11
150.68589958939975
 21
212.07516581088476
  0
LINE
  8
_0-2_製品
  6
dotted
 62
    7
 10
83.173343200787542
 20
214.07516581088476
 11
152.68589958939975
 21
214.07516581088476
  0
LINE
  8
_0-2_製品
  6
dotted
 62
    7
 10
85.173343200787542
 20
216.07516581088476
 11
154.68589958939975
 21
216.07516581088476
  0
LINE
  8
_0-2_製品
  6
dotted
 62
    7
 10
87.173343200787542
 20
218.07516581088476
 11
154.85392339017011
 21
218.07516581088476
  0
LINE
  8
_0-2_製品
  6
dotted
 62
    7
 10
89.173343200787542
 20
220.07516581088476
 11
152.85392339017011
 21
220.07516581088476
  0
LINE
  8
_0-2_製品
  6
dotted
 62
    7
 10
91.173343200787542
 20
222.07516581088476
 11
150.85392339017011
 21
222.07516581088476
  0
LINE
  8
_0-2_製品
  6
dotted
 62
    7
 10
93.173343200787542
 20
224.07516581088476
 11
148.85392339017011
 21
224.07516581088476
  0
LINE
  8
_0-2_製品
  6
dotted
 62
    7
 10
95.173343200787542
 20
226.07516581088476
 11
140.22234159488931
 21
226.07516581088476
  0
LINE
  8
_0-2_製品
  6
dotted
 62
    7
 10
97.173343200787542
 20
228.07516581088476
 11
136.20037662917906
 21
228.07516581088476
  0
LINE
  8
_0-2_製品
  6
dotted
 62
    7
 10
99.173343200787542
 20
230.07516581088476
 11
133.40060016790943
 21
230.07516581088476
  0
LINE
  8
_0-2_製品
  6
dotted
 62
    7
 10
101.17334320078754
 20
232.07516581088476
 11
131.24511658375098
 21
232.07516581088476
  0
LINE
  8
_0-2_製品
  6
dotted
 62
    7
 10
103.17334320078754
 20
234.07516581088476
 11
129.52211385122718
 21
234.07516581088476
  0
LINE
  8
_0-2_製品
  6
dotted
 62
    7
 10
105.17334320078754
 20
236.07516581088476
 11
128.12574004610786
 21
236.07516581088476
  0
LINE
  8
_0-2_製品
  6
dotted
 62
    7
 10
107.17334320078754
 20
238.07516581088476
 11
126.994561150729
 21
238.07516581088476
  0
LINE
  8
_0-2_製品
  6
dotted
 62
    7
 10
109.17334320078754
 20
240.07516581088476
 11
126.08976718921343
 21
240.07516581088476
  0
LINE
  8
_0-2_製品
  6
dotted
 62
    7
 10
111.17334320078754
 20
242.07516581088476
 11
125.38564627172792
 21
242.07516581088476
  0
LINE
  8
_0-2_製品
  6
dotted
 62
    7
 10
113.17334320078754
 20
244.07516581088476
 11
124.86484292596577
 21
244.07516581088476
  0
LINE
  8
_0-2_製品
  6
dotted
 62
    7
 10
115.17334320078754
 20
246.07516581088476
 11
124.51579697017149
 21
246.07516581088476
  0
LINE
  8
_0-2_製品
  6
dotted
 62
    7
 10
117.17334320078754
 20
248.07516581088476
 11
120.72906520662463
 21
248.07516581088476
  0
ARC
  8
_0-2_製品
  6
CONTINUOUS
 62
    7
 10
9.0918287215185387
 20
318.86526919607218
 40
177.50386778216054
 50
306.87477870172927
 51
323.12522129827062
  0
LINE
  8
_9-7_文字
  6
CONTINUOUS
 62
    7
 10
378.35337749382899
 20
87.67443044604488
 11
374.10337749382893
 21
87.67443044604488
  0
LINE
  8
_9-7_文字
  6
CONTINUOUS
 62
    7
 10
374.16587749382893
 20
89.374430446044883
 11
378.29087749382893
 21
89.374430446044883
  0
LINE
  8
_9-7_文字
  6
CONTINUOUS
 62
    7
 10
378.10337749382899
 20
89.749430446044883
 11
374.35337749382893
 21
89.749430446044883
  0
LINE
  8
_9-7_文字
  6
CONTINUOUS
 62
    7
 10
373.77837749382894
 20
89.150707196044877
 11
373.77837749382894
 21
87.862069321044871
  0
LINE
  8
_9-7_文字
  6
CONTINUOUS
 62
    7
 10
375.00337749382896
 20
89.150707196044877
 11
375.00337749382896
 21
87.862069321044871
  0
LINE
  8
_9-7_文字
  6
CONTINUOUS
 62
    7
 10
374.16587749382893
 20
89.374430446044883
 11
373.77837749382894
 21
89.150707196044877
  0
LINE
  8
_9-7_文字
  6
CONTINUOUS
 62
    7
 10
374.16587749382893
 20
89.561930446044883
 11
374.16587749382893
 21
89.374430446044883
  0
LINE
  8
_9-7_文字
  6
CONTINUOUS
 62
    7
 10
374.10337749382893
 20
87.67443044604488
 11
373.77837749382894
 21
87.862069321044871
  0
LINE
  8
_9-7_文字
  6
CONTINUOUS
 62
    7
 10
378.29087749382893
 20
89.374430446044883
 11
378.67837749382898
 21
89.150707196044877
  0
LINE
  8
_9-7_文字
  6
CONTINUOUS
 62
    7
 10
378.35337749382899
 20
87.67443044604488
 11
378.67837749382898
 21
87.862069321044871
  0
LINE
  8
_9-7_文字
  6
CONTINUOUS
 62
    7
 10
377.45337749382895
 20
89.150707196044877
 11
377.45337749382895
 21
87.862069321044871
  0
LINE
  8
_9-7_文字
  6
CONTINUOUS
 62
    7
 10
378.29087749382893
 20
89.561930446044883
 11
378.29087749382893
 21
89.374430446044883
  0
LINE
  8
_9-7_文字
  6
CONTINUOUS
 62
    7
 10
378.67837749382898
 20
89.150707196044877
 11
378.67837749382898
 21
87.862069321044871
  0
ARC
  8
_9-7_文字
  6
CONTINUOUS
 62
    7
 10
376.05087374382896
 20
86.880739946044883
 40
2.5
 50
85.928488999999985
 51
114.77137599999996
  0
ARC
  8
_9-7_文字
  6
CONTINUOUS
 62
    7
 10
375.98258786882894
 20
90.162318571044878
 40
2.5
 50
246.94066600000005
 51
275.6421969999999
  0
ARC
  8
_9-7_文字
  6
CONTINUOUS
 62
    7
 10
374.35337749382893
 20
89.561930446044883
 40
0.1875
 50
90
 51
180
  0
ARC
  8
_9-7_文字
  6
CONTINUOUS
 62
    7
 10
374.28203899382902
 20
88.129839571044883
 40
1.25
 50
54.75521999999998
 51
95.332144999999983
  0
ARC
  8
_9-7_文字
  6
CONTINUOUS
 62
    7
 10
374.31613074382898
 20
88.906191821044885
 40
1.25
 50
260.20040299999999
 51
303.3531170000004
  0
ARC
  8
_9-7_文字
  6
CONTINUOUS
 62
    7
 10
376.40588124382896
 20
86.880739946044883
 40
2.5
 50
65.228624000000025
 51
94.071511000000015
  0
ARC
  8
_9-7_文字
  6
CONTINUOUS
 62
    7
 10
378.17471599382895
 20
88.129839571044883
 40
1.25
 50
84.667855000000017
 51
125.24477999999999
  0
ARC
  8
_9-7_文字
  6
CONTINUOUS
 62
    7
 10
378.10337749382899
 20
89.561930446044883
 40
0.1875
 50
0
 51
90
  0
ARC
  8
_9-7_文字
  6
CONTINUOUS
 62
    7
 10
376.47416711882897
 20
90.162318571044878
 40
2.5
 50
264.35780300000005
 51
293.05933399999998
  0
ARC
  8
_9-7_文字
  6
CONTINUOUS
 62
    7
 10
378.14062424382894
 20
88.906191821044885
 40
1.25
 50
236.64688299999892
 51
279.79959700000006
  0
ENDSEC
  0
EOF
